ISO-10303-21;
HEADER;
FILE_DESCRIPTION(
/* description */ (''),
/* implementation_level */ '2;1');
FILE_NAME(
/* name */ 'CCMW060204.stp',
/* time_stamp */ '2017-03-21T10:53:49',
/* author */ ('Sandvik Coromant R&D'),
/* organization */ ('Sandvik Machining Solutions'),
/* preprocessor_version */ 'ST-DEVELOPER v15',
/* originating_system */ 'SIEMENS PLM Software NX v8.5.3.3(64 bits)',
/* authorization */ '');
FILE_SCHEMA(('AUTOMOTIVE_DESIGN'));
ENDSEC;
DATA;
#10=GEOMETRICALLY_BOUNDED_WIREFRAME_SHAPE_REPRESENTATION('IsoTurningInsert-None',
     (#25),#511);
#11=SHAPE_REPRESENTATION_RELATIONSHIP('None','relationship between IsoTurningInsert-None and IsoTurningInsert-None',
     #24,#13);
#12=SHAPE_REPRESENTATION_RELATIONSHIP('None','relationship between IsoTurningInsert-None and IsoTurningInsert-None',
     #24,#10);
#13=ADVANCED_BREP_SHAPE_REPRESENTATION('IsoTurningInsert-None',(#31),#511);
#14=SHAPE_DEFINITION_REPRESENTATION(#15,#24);
#15=PRODUCT_DEFINITION_SHAPE('','',#16);
#16=PRODUCT_DEFINITION(' ','',#18,#17);
#17=PRODUCT_DEFINITION_CONTEXT('part definition',#23,'design');
#18=PRODUCT_DEFINITION_FORMATION_WITH_SPECIFIED_SOURCE(' ',' ',#20,.NOT_KNOWN.);
#19=PRODUCT_RELATED_PRODUCT_CATEGORY('part','',(#20));
#20=PRODUCT('IsoTurningInsert','IsoTurningInsert',' ',(#21));
#21=PRODUCT_CONTEXT(' ',#23,'mechanical');
#22=APPLICATION_PROTOCOL_DEFINITION('international standard','automotive_design',
     2010,#23);
#23=APPLICATION_CONTEXT('core data for automotive mechanical design processes');
#24=SHAPE_REPRESENTATION('IsoTurningInsert-None',(#281),#511);
#25=GEOMETRIC_CURVE_SET('geometric curve set',(#261));
#26=SURFACE_STYLE_USAGE(.BOTH.,#27);
#27=SURFACE_SIDE_STYLE('',(#28));
#28=SURFACE_STYLE_FILL_AREA(#29);
#29=FILL_AREA_STYLE('',(#30));
#30=FILL_AREA_STYLE_COLOUR('',#280);
#31=MANIFOLD_SOLID_BREP('CUT',#32);
#32=CLOSED_SHELL('',(#49,#50,#51,#52,#53,#54,#55,#56,#57,#58,#59,#60,#61,#62));
#33=CYLINDRICAL_SURFACE('',#309,1.4);
#34=TOROIDAL_SURFACE('',#308,3.9,2.5);
#35=TOROIDAL_SURFACE('',#310,1.38569981785224,0.5);
#36=CONICAL_SURFACE('',#300,0.396875000000002,7.0);
#37=CONICAL_SURFACE('',#301,0.396875000000002,7.0);
#38=CONICAL_SURFACE('',#302,0.396875000000002,7.0);
#39=CONICAL_SURFACE('',#303,0.396875000000002,7.0);
#40=CONICAL_SURFACE('',#305,1.87499999997636,4.0000000017908);
#41=FACE_OUTER_BOUND('',#115,.T.);
#42=FACE_OUTER_BOUND('',#116,.T.);
#43=FACE_OUTER_BOUND('',#117,.T.);
#44=FACE_OUTER_BOUND('',#118,.T.);
#45=FACE_OUTER_BOUND('',#121,.T.);
#46=FACE_OUTER_BOUND('',#122,.T.);
#47=FACE_OUTER_BOUND('',#123,.T.);
#48=FACE_OUTER_BOUND('',#124,.T.);
#49=ADVANCED_FACE('',(#101,#102),#63,.F.);
#50=ADVANCED_FACE('',(#41),#64,.F.);
#51=ADVANCED_FACE('',(#42),#65,.F.);
#52=ADVANCED_FACE('',(#43),#66,.F.);
#53=ADVANCED_FACE('',(#44),#67,.F.);
#54=ADVANCED_FACE('',(#103,#104),#68,.T.);
#55=ADVANCED_FACE('',(#45),#36,.T.);
#56=ADVANCED_FACE('',(#46),#37,.T.);
#57=ADVANCED_FACE('',(#47),#38,.T.);
#58=ADVANCED_FACE('',(#48),#39,.T.);
#59=ADVANCED_FACE('',(#105,#106),#40,.F.);
#60=ADVANCED_FACE('',(#107,#108),#34,.T.);
#61=ADVANCED_FACE('',(#109,#110),#33,.F.);
#62=ADVANCED_FACE('',(#111,#112),#35,.F.);
#63=PLANE('',#289);
#64=PLANE('',#290);
#65=PLANE('',#291);
#66=PLANE('',#292);
#67=PLANE('',#293);
#68=PLANE('',#299);
#69=LINE('',#448,#85);
#70=LINE('',#453,#86);
#71=LINE('',#457,#87);
#72=LINE('',#461,#88);
#73=LINE('',#465,#89);
#74=LINE('',#468,#90);
#75=LINE('',#469,#91);
#76=LINE('',#471,#92);
#77=LINE('',#473,#93);
#78=LINE('',#475,#94);
#79=LINE('',#477,#95);
#80=LINE('',#479,#96);
#81=LINE('',#481,#97);
#82=LINE('',#483,#98);
#83=LINE('',#485,#99);
#84=LINE('',#487,#100);
#85=VECTOR('',#319,1.0);
#86=VECTOR('',#322,1.0);
#87=VECTOR('',#325,1.0);
#88=VECTOR('',#328,1.0);
#89=VECTOR('',#333,1.0);
#90=VECTOR('',#334,1.0);
#91=VECTOR('',#335,1.0);
#92=VECTOR('',#338,1.0);
#93=VECTOR('',#339,1.0);
#94=VECTOR('',#340,1.0);
#95=VECTOR('',#343,1.0);
#96=VECTOR('',#344,1.0);
#97=VECTOR('',#345,1.0);
#98=VECTOR('',#348,1.0);
#99=VECTOR('',#349,1.0);
#100=VECTOR('',#350,1.0);
#101=FACE_BOUND('',#113,.T.);
#102=FACE_BOUND('',#114,.T.);
#103=FACE_BOUND('',#119,.T.);
#104=FACE_BOUND('',#120,.T.);
#105=FACE_BOUND('',#125,.T.);
#106=FACE_BOUND('',#126,.T.);
#107=FACE_BOUND('',#127,.T.);
#108=FACE_BOUND('',#128,.T.);
#109=FACE_BOUND('',#129,.T.);
#110=FACE_BOUND('',#130,.T.);
#111=FACE_BOUND('',#131,.T.);
#112=FACE_BOUND('',#132,.T.);
#113=EDGE_LOOP('',(#133));
#114=EDGE_LOOP('',(#134,#135,#136,#137,#138,#139,#140,#141));
#115=EDGE_LOOP('',(#142,#143,#144,#145));
#116=EDGE_LOOP('',(#146,#147,#148,#149));
#117=EDGE_LOOP('',(#150,#151,#152,#153));
#118=EDGE_LOOP('',(#154,#155,#156,#157));
#119=EDGE_LOOP('',(#158));
#120=EDGE_LOOP('',(#159,#160,#161,#162,#163,#164,#165,#166));
#121=EDGE_LOOP('',(#167,#168,#169,#170));
#122=EDGE_LOOP('',(#171,#172,#173,#174));
#123=EDGE_LOOP('',(#175,#176,#177,#178));
#124=EDGE_LOOP('',(#179,#180,#181,#182));
#125=EDGE_LOOP('',(#183));
#126=EDGE_LOOP('',(#184));
#127=EDGE_LOOP('',(#185));
#128=EDGE_LOOP('',(#186));
#129=EDGE_LOOP('',(#187));
#130=EDGE_LOOP('',(#188));
#131=EDGE_LOOP('',(#189));
#132=EDGE_LOOP('',(#190));
#133=ORIENTED_EDGE('',*,*,#212,.T.);
#134=ORIENTED_EDGE('',*,*,#213,.T.);
#135=ORIENTED_EDGE('',*,*,#214,.T.);
#136=ORIENTED_EDGE('',*,*,#215,.T.);
#137=ORIENTED_EDGE('',*,*,#216,.T.);
#138=ORIENTED_EDGE('',*,*,#217,.T.);
#139=ORIENTED_EDGE('',*,*,#218,.T.);
#140=ORIENTED_EDGE('',*,*,#219,.T.);
#141=ORIENTED_EDGE('',*,*,#220,.T.);
#142=ORIENTED_EDGE('',*,*,#221,.F.);
#143=ORIENTED_EDGE('',*,*,#222,.T.);
#144=ORIENTED_EDGE('',*,*,#213,.F.);
#145=ORIENTED_EDGE('',*,*,#223,.T.);
#146=ORIENTED_EDGE('',*,*,#219,.F.);
#147=ORIENTED_EDGE('',*,*,#224,.T.);
#148=ORIENTED_EDGE('',*,*,#225,.F.);
#149=ORIENTED_EDGE('',*,*,#226,.T.);
#150=ORIENTED_EDGE('',*,*,#217,.F.);
#151=ORIENTED_EDGE('',*,*,#227,.T.);
#152=ORIENTED_EDGE('',*,*,#228,.F.);
#153=ORIENTED_EDGE('',*,*,#229,.T.);
#154=ORIENTED_EDGE('',*,*,#215,.F.);
#155=ORIENTED_EDGE('',*,*,#230,.T.);
#156=ORIENTED_EDGE('',*,*,#231,.F.);
#157=ORIENTED_EDGE('',*,*,#232,.T.);
#158=ORIENTED_EDGE('',*,*,#233,.F.);
#159=ORIENTED_EDGE('',*,*,#231,.T.);
#160=ORIENTED_EDGE('',*,*,#234,.T.);
#161=ORIENTED_EDGE('',*,*,#221,.T.);
#162=ORIENTED_EDGE('',*,*,#235,.T.);
#163=ORIENTED_EDGE('',*,*,#225,.T.);
#164=ORIENTED_EDGE('',*,*,#236,.T.);
#165=ORIENTED_EDGE('',*,*,#228,.T.);
#166=ORIENTED_EDGE('',*,*,#237,.T.);
#167=ORIENTED_EDGE('',*,*,#214,.F.);
#168=ORIENTED_EDGE('',*,*,#222,.F.);
#169=ORIENTED_EDGE('',*,*,#234,.F.);
#170=ORIENTED_EDGE('',*,*,#230,.F.);
#171=ORIENTED_EDGE('',*,*,#216,.F.);
#172=ORIENTED_EDGE('',*,*,#232,.F.);
#173=ORIENTED_EDGE('',*,*,#237,.F.);
#174=ORIENTED_EDGE('',*,*,#227,.F.);
#175=ORIENTED_EDGE('',*,*,#218,.F.);
#176=ORIENTED_EDGE('',*,*,#229,.F.);
#177=ORIENTED_EDGE('',*,*,#236,.F.);
#178=ORIENTED_EDGE('',*,*,#224,.F.);
#179=ORIENTED_EDGE('',*,*,#220,.F.);
#180=ORIENTED_EDGE('',*,*,#226,.F.);
#181=ORIENTED_EDGE('',*,*,#235,.F.);
#182=ORIENTED_EDGE('',*,*,#223,.F.);
#183=ORIENTED_EDGE('',*,*,#238,.T.);
#184=ORIENTED_EDGE('',*,*,#233,.T.);
#185=ORIENTED_EDGE('',*,*,#239,.T.);
#186=ORIENTED_EDGE('',*,*,#240,.T.);
#187=ORIENTED_EDGE('',*,*,#240,.F.);
#188=ORIENTED_EDGE('',*,*,#212,.F.);
#189=ORIENTED_EDGE('',*,*,#239,.F.);
#190=ORIENTED_EDGE('',*,*,#238,.F.);
#191=VERTEX_POINT('',#447);
#192=VERTEX_POINT('',#449);
#193=VERTEX_POINT('',#450);
#194=VERTEX_POINT('',#452);
#195=VERTEX_POINT('',#454);
#196=VERTEX_POINT('',#456);
#197=VERTEX_POINT('',#458);
#198=VERTEX_POINT('',#460);
#199=VERTEX_POINT('',#462);
#200=VERTEX_POINT('',#466);
#201=VERTEX_POINT('',#467);
#202=VERTEX_POINT('',#472);
#203=VERTEX_POINT('',#474);
#204=VERTEX_POINT('',#478);
#205=VERTEX_POINT('',#480);
#206=VERTEX_POINT('',#484);
#207=VERTEX_POINT('',#486);
#208=VERTEX_POINT('',#490);
#209=VERTEX_POINT('',#501);
#210=VERTEX_POINT('',#504);
#211=VERTEX_POINT('',#506);
#212=EDGE_CURVE('',#191,#191,#241,.T.);
#213=EDGE_CURVE('',#192,#193,#69,.T.);
#214=EDGE_CURVE('',#193,#194,#242,.T.);
#215=EDGE_CURVE('',#194,#195,#70,.T.);
#216=EDGE_CURVE('',#195,#196,#243,.T.);
#217=EDGE_CURVE('',#196,#197,#71,.T.);
#218=EDGE_CURVE('',#197,#198,#244,.T.);
#219=EDGE_CURVE('',#198,#199,#72,.T.);
#220=EDGE_CURVE('',#199,#192,#245,.T.);
#221=EDGE_CURVE('',#200,#201,#73,.T.);
#222=EDGE_CURVE('',#200,#193,#74,.T.);
#223=EDGE_CURVE('',#192,#201,#75,.T.);
#224=EDGE_CURVE('',#198,#202,#76,.T.);
#225=EDGE_CURVE('',#203,#202,#77,.T.);
#226=EDGE_CURVE('',#203,#199,#78,.T.);
#227=EDGE_CURVE('',#196,#204,#79,.T.);
#228=EDGE_CURVE('',#205,#204,#80,.T.);
#229=EDGE_CURVE('',#205,#197,#81,.T.);
#230=EDGE_CURVE('',#194,#206,#82,.T.);
#231=EDGE_CURVE('',#207,#206,#83,.T.);
#232=EDGE_CURVE('',#207,#195,#84,.T.);
#233=EDGE_CURVE('',#208,#208,#246,.T.);
#234=EDGE_CURVE('',#206,#200,#247,.T.);
#235=EDGE_CURVE('',#201,#203,#248,.T.);
#236=EDGE_CURVE('',#202,#205,#249,.T.);
#237=EDGE_CURVE('',#204,#207,#250,.T.);
#238=EDGE_CURVE('',#209,#209,#251,.T.);
#239=EDGE_CURVE('',#210,#210,#252,.T.);
#240=EDGE_CURVE('',#211,#211,#253,.T.);
#241=CIRCLE('',#284,1.4);
#242=CIRCLE('',#285,0.104494264349961);
#243=CIRCLE('',#286,0.10449426434996);
#244=CIRCLE('',#287,0.10449426434996);
#245=CIRCLE('',#288,0.104494264349961);
#246=CIRCLE('',#294,1.92255023212159);
#247=CIRCLE('',#295,0.396875000000002);
#248=CIRCLE('',#296,0.396875000000002);
#249=CIRCLE('',#297,0.396875000000002);
#250=CIRCLE('',#298,0.396875000000002);
#251=CIRCLE('',#304,1.88448184298103);
#252=CIRCLE('',#306,1.80474984821024);
#253=CIRCLE('',#307,1.4);
#254=CURVE_STYLE('',#258,POSITIVE_LENGTH_MEASURE(0.18),#257);
#255=CURVE_STYLE('',#259,POSITIVE_LENGTH_MEASURE(0.18),#279);
#256=CURVE_STYLE('',#260,POSITIVE_LENGTH_MEASURE(0.18),#279);
#257=DRAUGHTING_PRE_DEFINED_COLOUR('blue');
#258=DRAUGHTING_PRE_DEFINED_CURVE_FONT('continuous');
#259=DRAUGHTING_PRE_DEFINED_CURVE_FONT('continuous');
#260=DRAUGHTING_PRE_DEFINED_CURVE_FONT('continuous');
#261=B_SPLINE_CURVE_WITH_KNOTS('CUTTING EDGE LINE',5,(#390,#391,#392,#393,#394,#395,
     #396,#397,#398,#399,#400,#401,#402,#403,#404,#405,#406,#407,#408,#409,#410,
     #411,#412,#413,#414,#415,#416,#417,#418,#419,#420,#421,#422,#423,#424,#425,
     #426,#427,#428,#429,#430,#431,#432,#433,#434,#435,#436,#437,#438,#439,#440,
     #441,#442,#443),.UNSPECIFIED.,.T.,.F.,(2,4,1,1,1,4,4,1,1,1,1,1,1,1,4,4,1,1,
     1,4,4,1,1,1,1,1,1,1,4,4,1,1),(-0.225124797,0.0,0.00552782287499998,0.01105564575,
     0.016583468625,0.0221112915,0.2472360885,0.2506909778125,0.254145867125,0.2576007564375,
     0.26105564575,0.2645105350625,0.267965424375,0.2714203136875,0.274875203,0.5,
     0.505527822875,0.51105564575,0.516583468625,0.5221112915,0.7472360885,0.7506909778125,
     0.754145867125,0.7576007564375,0.76105564575,0.7645105350625,0.767965424375,
     0.7714203136875,0.774875203,1.0,1.005527822875,1.01105564575),.UNSPECIFIED.);
#262=PRESENTATION_LAYER_ASSIGNMENT('1','Layer 1',(#261,#282,#283,#31));
#265=STYLED_ITEM('',(#271),#261);
#266=STYLED_ITEM('',(#272),#282);
#267=STYLED_ITEM('',(#273),#283);
#268=STYLED_ITEM('',(#274),#31);
#269=PRESENTATION_STYLE_ASSIGNMENT((#275));
#270=PRESENTATION_STYLE_ASSIGNMENT((#276));
#271=PRESENTATION_STYLE_ASSIGNMENT((#254));
#272=PRESENTATION_STYLE_ASSIGNMENT((#255));
#273=PRESENTATION_STYLE_ASSIGNMENT((#256));
#274=PRESENTATION_STYLE_ASSIGNMENT((#26));
#275=POINT_STYLE('',#277,POSITIVE_LENGTH_MEASURE(3.0),#279);
#276=POINT_STYLE('',#278,POSITIVE_LENGTH_MEASURE(3.0),#279);
#277=PRE_DEFINED_POINT_MARKER_SYMBOL('plus');
#278=PRE_DEFINED_POINT_MARKER_SYMBOL('plus');
#279=COLOUR_RGB('Medium Maroon',0.6,0.4,0.4);
#280=COLOUR_RGB('IsoInsertColor',0.8,0.8,0.8);
#281=AXIS2_PLACEMENT_3D('',#387,#311,#312);
#282=AXIS2_PLACEMENT_3D('PCS',#444,#313,#314);
#283=AXIS2_PLACEMENT_3D('MCS',#445,#315,#316);
#284=AXIS2_PLACEMENT_3D('',#446,#317,#318);
#285=AXIS2_PLACEMENT_3D('',#451,#320,#321);
#286=AXIS2_PLACEMENT_3D('',#455,#323,#324);
#287=AXIS2_PLACEMENT_3D('',#459,#326,#327);
#288=AXIS2_PLACEMENT_3D('',#463,#329,#330);
#289=AXIS2_PLACEMENT_3D('',#464,#331,#332);
#290=AXIS2_PLACEMENT_3D('',#470,#336,#337);
#291=AXIS2_PLACEMENT_3D('',#476,#341,#342);
#292=AXIS2_PLACEMENT_3D('',#482,#346,#347);
#293=AXIS2_PLACEMENT_3D('',#488,#351,#352);
#294=AXIS2_PLACEMENT_3D('',#489,#353,#354);
#295=AXIS2_PLACEMENT_3D('',#491,#355,#356);
#296=AXIS2_PLACEMENT_3D('',#492,#357,#358);
#297=AXIS2_PLACEMENT_3D('',#493,#359,#360);
#298=AXIS2_PLACEMENT_3D('',#494,#361,#362);
#299=AXIS2_PLACEMENT_3D('',#495,#363,#364);
#300=AXIS2_PLACEMENT_3D('',#496,#365,#366);
#301=AXIS2_PLACEMENT_3D('',#497,#367,#368);
#302=AXIS2_PLACEMENT_3D('',#498,#369,#370);
#303=AXIS2_PLACEMENT_3D('',#499,#371,#372);
#304=AXIS2_PLACEMENT_3D('',#500,#373,#374);
#305=AXIS2_PLACEMENT_3D('',#502,#375,#376);
#306=AXIS2_PLACEMENT_3D('',#503,#377,#378);
#307=AXIS2_PLACEMENT_3D('',#505,#379,#380);
#308=AXIS2_PLACEMENT_3D('',#507,#381,#382);
#309=AXIS2_PLACEMENT_3D('',#508,#383,#384);
#310=AXIS2_PLACEMENT_3D('',#509,#385,#386);
#311=DIRECTION('',(0.0,0.0,1.0));
#312=DIRECTION('',(1.0,0.0,0.0));
#313=DIRECTION('',(0.0,0.0,1.0));
#314=DIRECTION('',(1.0,0.0,0.0));
#315=DIRECTION('',(0.0,0.0,1.0));
#316=DIRECTION('',(1.0,0.0,0.0));
#317=DIRECTION('',(0.0,0.0,1.0));
#318=DIRECTION('',(-0.766044443118978,-0.642787609686539,0.0));
#319=DIRECTION('',(1.0,7.7715611723761E-16,0.0));
#320=DIRECTION('',(0.0,0.0,-1.0));
#321=DIRECTION('',(-0.766044443118978,-0.642787609686542,0.0));
#322=DIRECTION('',(-0.173648177666929,-0.984807753012208,0.0));
#323=DIRECTION('',(0.0,0.0,-1.0));
#324=DIRECTION('',(-0.766044443118981,-0.64278760968654,0.0));
#325=DIRECTION('',(-1.0,1.11022302462516E-16,0.0));
#326=DIRECTION('',(0.0,0.0,-1.0));
#327=DIRECTION('',(-0.766044443118978,-0.642787609686539,0.0));
#328=DIRECTION('',(0.17364817766693,0.984807753012208,0.0));
#329=DIRECTION('',(0.0,0.0,-1.0));
#330=DIRECTION('',(-0.766044443118979,-0.642787609686541,0.0));
#331=DIRECTION('',(0.0,0.0,1.0));
#332=DIRECTION('',(-0.766044443118978,-0.642787609686539,0.0));
#333=DIRECTION('',(-1.0,-7.21644966006352E-16,-2.17181600848858E-16));
#334=DIRECTION('',(3.05311331771918E-16,-0.121869343405148,-0.992546151641322));
#335=DIRECTION('',(-3.05311331771918E-16,0.121869343405148,0.992546151641322));
#336=DIRECTION('',(7.7715611723761E-16,-0.992546151641322,0.121869343405148));
#337=DIRECTION('',(1.0,7.7715611723761E-16,0.0));
#338=DIRECTION('',(-0.120017874239897,0.0211623893957699,0.992546151641322));
#339=DIRECTION('',(-0.17364817766693,-0.984807753012208,7.21360439164787E-16));
#340=DIRECTION('',(0.120017874239897,-0.0211623893957699,-0.992546151641322));
#341=DIRECTION('',(0.977467145358805,-0.17235383048284,0.121869343405148));
#342=DIRECTION('',(0.17364817766693,0.984807753012208,0.0));
#343=DIRECTION('',(-2.15105711021124E-16,-0.121869343405147,0.992546151641322));
#344=DIRECTION('',(1.0,-5.55111512312578E-17,2.10365688519714E-16));
#345=DIRECTION('',(2.15105711021124E-16,0.121869343405147,-0.992546151641322));
#346=DIRECTION('',(0.0,0.992546151641322,0.121869343405147));
#347=DIRECTION('',(-1.0,1.11022302462516E-16,0.0));
#348=DIRECTION('',(0.120017874239896,-0.0211623893957683,0.992546151641322));
#349=DIRECTION('',(0.17364817766693,0.984807753012208,-7.21360439164787E-16));
#350=DIRECTION('',(-0.120017874239896,0.0211623893957683,-0.992546151641322));
#351=DIRECTION('',(-0.977467145358805,0.172353830482839,0.121869343405147));
#352=DIRECTION('',(-0.173648177666929,-0.984807753012208,0.0));
#353=DIRECTION('',(0.0,0.0,1.0));
#354=DIRECTION('',(-0.766044443118978,-0.642787609686539,0.0));
#355=DIRECTION('',(-2.06618502467437E-16,7.72938635790475E-16,1.0));
#356=DIRECTION('',(-0.64278760968654,0.766044443118978,-7.24917160137312E-16));
#357=DIRECTION('',(-2.06618502467437E-16,7.72938635790475E-16,1.0));
#358=DIRECTION('',(-0.642787609686539,0.766044443118978,-7.24917160137312E-16));
#359=DIRECTION('',(-2.06618502467437E-16,7.72938635790475E-16,1.0));
#360=DIRECTION('',(-0.642787609686539,0.766044443118978,-7.24917160137313E-16));
#361=DIRECTION('',(-2.06618502467437E-16,7.72938635790475E-16,1.0));
#362=DIRECTION('',(-0.64278760968654,0.766044443118978,-7.24917160137313E-16));
#363=DIRECTION('',(-2.06618502467437E-16,7.72938635790475E-16,1.0));
#364=DIRECTION('',(-0.642787609686539,0.766044443118978,-7.24917160137313E-16));
#365=DIRECTION('',(-2.06618502467437E-16,7.72938635790475E-16,1.0));
#366=DIRECTION('',(-0.642787609686539,0.766044443118978,-8.66084187041515E-16));
#367=DIRECTION('',(-2.06618502467437E-16,7.72938635790475E-16,1.0));
#368=DIRECTION('',(-0.642787609686539,0.766044443118978,-8.97770193884498E-16));
#369=DIRECTION('',(-2.06618502467437E-16,7.72938635790475E-16,1.0));
#370=DIRECTION('',(-0.642787609686539,0.766044443118978,-8.87208191603504E-16));
#371=DIRECTION('',(-2.06618502467437E-16,7.72938635790475E-16,1.0));
#372=DIRECTION('',(-0.642787609686539,0.766044443118978,-8.55522184760521E-16));
#373=DIRECTION('',(0.0,0.0,-1.0));
#374=DIRECTION('',(0.766044443118978,0.642787609686539,0.0));
#375=DIRECTION('',(0.0,0.0,1.0));
#376=DIRECTION('',(-0.766044443118978,-0.642787609686539,-1.93279075083324E-16));
#377=DIRECTION('',(0.0,0.0,1.0));
#378=DIRECTION('',(0.766044443118978,0.642787609686539,0.0));
#379=DIRECTION('',(0.0,0.0,-1.0));
#380=DIRECTION('',(-0.766044443118978,-0.642787609686539,0.0));
#381=DIRECTION('',(0.0,0.0,1.0));
#382=DIRECTION('',(-0.766044443118978,-0.642787609686539,0.0));
#383=DIRECTION('',(0.0,0.0,1.0));
#384=DIRECTION('',(-0.766044443118978,-0.642787609686539,0.0));
#385=DIRECTION('',(0.0,0.0,-1.0));
#386=DIRECTION('',(0.766044443118978,0.642787609686539,0.0));
#387=CARTESIAN_POINT('',(0.0,0.0,0.0));
#390=CARTESIAN_POINT('',(4.98654849689295,-2.66453525910038E-15,0.0));
#391=CARTESIAN_POINT('',(6.14045195261042,-3.10862446895044E-15,3.12030989920406E-16));
#392=CARTESIAN_POINT('',(6.19147321912929,0.00409947974360181,3.18566629781726E-16));
#393=CARTESIAN_POINT('',(6.2761301973487,0.0237257408397187,3.16878175245599E-16));
#394=CARTESIAN_POINT('',(6.37811570336568,0.0832359823715643,2.7979270489213E-16));
#395=CARTESIAN_POINT('',(6.45443144787839,0.173338254397728,2.07506718800387E-16));
#396=CARTESIAN_POINT('',(6.488460071963,0.25330103842087,1.363924468022E-16));
#397=CARTESIAN_POINT('',(6.50135702135108,0.302835310070293,9.06488465572688E-17));
#398=CARTESIAN_POINT('',(6.70173025363999,1.43920837948843,4.02072739357347E-17));
#399=CARTESIAN_POINT('',(6.89767361095227,2.55045837948843,2.68048492904897E-17));
#400=CARTESIAN_POINT('',(7.09361696826455,3.66170837948843,2.68048492904897E-17));
#401=CARTESIAN_POINT('',(7.28956032557683,4.77295837948843,4.02072739357344E-17));
#402=CARTESIAN_POINT('',(7.48814334259818,5.89917863360646,5.81401660923375E-17));
#403=CARTESIAN_POINT('',(7.49198917701892,5.92937190392401,4.04203744214624E-17));
#404=CARTESIAN_POINT('',(7.4937810691168,5.9794760556916,1.15554107185627E-17));
#405=CARTESIAN_POINT('',(7.48516295565447,6.04715268173447,-2.613417165016E-17));
#406=CARTESIAN_POINT('',(7.45434243241377,6.13340816457713,-7.18363280544083E-17));
#407=CARTESIAN_POINT('',(7.40284124503486,6.21172135837271,-1.10562913049168E-16));
#408=CARTESIAN_POINT('',(7.33466089195786,6.27603907038269,-1.39323007262865E-16));
#409=CARTESIAN_POINT('',(7.25506775140992,6.32136946803142,-1.558815092687E-16));
#410=CARTESIAN_POINT('',(7.18991580508344,6.34160857576845,-1.59789790206537E-16));
#411=CARTESIAN_POINT('',(7.14026168916681,6.34854440118589,-1.579136380841E-16));
#412=CARTESIAN_POINT('',(7.10985930033053,6.34999999999999,-1.55168701030705E-16));
#413=CARTESIAN_POINT('',(5.96626528345436,6.34999999999999,-9.20280063238037E-17));
#414=CARTESIAN_POINT('',(4.83787246099632,6.34999999999999,-6.13520042158691E-17));
#415=CARTESIAN_POINT('',(3.70947963853829,6.34999999999999,-6.13520042158691E-17));
#416=CARTESIAN_POINT('',(2.58108681608026,6.34999999999999,-9.20280063238037E-17));
#417=CARTESIAN_POINT('',(1.4271833603628,6.34999999999999,-1.70400569856678E-16));
#418=CARTESIAN_POINT('',(1.37616209384393,6.34590052025638,-2.00102463678378E-16));
#419=CARTESIAN_POINT('',(1.29150511562447,6.32627425916023,-2.35811110187217E-16));
#420=CARTESIAN_POINT('',(1.18951960960771,6.26676401762856,-2.40864790095893E-16));
#421=CARTESIAN_POINT('',(1.11320386509478,6.17666174560221,-1.96410632810055E-16));
#422=CARTESIAN_POINT('',(1.07917524101022,6.09669896157911,-1.34475196670454E-16));
#423=CARTESIAN_POINT('',(1.06627829162214,6.04716468992969,-9.06488465572687E-17));
#424=CARTESIAN_POINT('',(0.865905059333228,4.91079162051155,-4.02072739357346E-17));
#425=CARTESIAN_POINT('',(0.669961702020946,3.79954162051155,-2.68048492904898E-17));
#426=CARTESIAN_POINT('',(0.474018344708665,2.68829162051156,-2.68048492904898E-17));
#427=CARTESIAN_POINT('',(0.278074987396383,1.57704162051156,-4.02072739357347E-17));
#428=CARTESIAN_POINT('',(0.0794919703750319,0.45082136639353,-5.8140166092338E-17));
#429=CARTESIAN_POINT('',(0.0756461359542895,0.420628096075984,-4.0420374421463E-17));
#430=CARTESIAN_POINT('',(0.0738542438564163,0.370523944308389,-1.15554107185633E-17));
#431=CARTESIAN_POINT('',(0.08247235731874,0.302847318265516,2.61341716501595E-17));
#432=CARTESIAN_POINT('',(0.113292880559445,0.216591835422862,7.1836328054408E-17));
#433=CARTESIAN_POINT('',(0.164794067938345,0.138278641627271,1.10562913049168E-16));
#434=CARTESIAN_POINT('',(0.23297442101535,0.0739609296173023,1.39323007262865E-16));
#435=CARTESIAN_POINT('',(0.312567561563287,0.0286305319685738,1.55881509268701E-16));
#436=CARTESIAN_POINT('',(0.377719507889766,0.00839142423153794,1.59789790206537E-16));
#437=CARTESIAN_POINT('',(0.4273736238064,0.0014555988140974,1.579136380841E-16));
#438=CARTESIAN_POINT('',(0.457776012642684,-2.22044604925031E-15,1.55168701030705E-16));
#439=CARTESIAN_POINT('',(1.60137002951886,-2.66453525910038E-15,9.20280063238038E-17));
#440=CARTESIAN_POINT('',(2.72976285197689,-2.66453525910038E-15,4.60140031619019E-17));
#441=CARTESIAN_POINT('',(3.85815567443492,-2.66453525910038E-15,1.53380010539673E-17));
#442=CARTESIAN_POINT('',(4.98654849689295,-2.66453525910038E-15,0.0));
#443=CARTESIAN_POINT('',(6.14045195261042,-3.10862446895044E-15,3.12030989920406E-16));
#444=CARTESIAN_POINT('',(0.0,0.0,0.0));
#445=CARTESIAN_POINT('',(3.78381765648661,3.175,0.0));
#446=CARTESIAN_POINT('',(3.78381765648661,3.175,-2.38125));
#447=CARTESIAN_POINT('',(2.71135543612004,2.27509734643884,-2.38125));
#448=CARTESIAN_POINT('',(3.78381765648661,6.05761926434995,-2.38125));
#449=CARTESIAN_POINT('',(1.45269399362223,6.05761926434994,-2.38125));
#450=CARTESIAN_POINT('',(7.09465810591239,6.05761926434995,-2.38125));
#451=CARTESIAN_POINT('',(7.09465810591239,5.95312499999999,-2.38125));
#452=CARTESIAN_POINT('',(7.19756486758954,5.93497976141897,-2.38125));
#453=CARTESIAN_POINT('',(6.62264345700079,2.67443841783804,-2.38125));
#454=CARTESIAN_POINT('',(6.21784808102813,0.37872976141898,-2.38125));
#455=CARTESIAN_POINT('',(6.11494131935099,0.396875,-2.38125));
#456=CARTESIAN_POINT('',(6.11494131935098,0.292380735650037,-2.38125));
#457=CARTESIAN_POINT('',(3.78381765648661,0.292380735650037,-2.38125));
#458=CARTESIAN_POINT('',(0.472977207060827,0.292380735650036,-2.38125));
#459=CARTESIAN_POINT('',(0.472977207060827,0.396875000000001,-2.38125));
#460=CARTESIAN_POINT('',(0.370070445383677,0.415020238581015,-2.38125));
#461=CARTESIAN_POINT('',(0.944991855972425,3.67556158216195,-2.38125));
#462=CARTESIAN_POINT('',(1.34978723194508,5.971270238581,-2.38125));
#463=CARTESIAN_POINT('',(1.45269399362223,5.95312499999998,-2.38125));
#464=CARTESIAN_POINT('',(3.73759634394945,2.64668798019793,-2.38125));
#465=CARTESIAN_POINT('',(3.78381765648661,6.34999999999999,-5.38749756651153E-15));
#466=CARTESIAN_POINT('',(7.09465810591239,6.34999999999999,-4.70341667094256E-15));
#467=CARTESIAN_POINT('',(1.45269399362223,6.34999999999999,-5.86915084679898E-15));
#468=CARTESIAN_POINT('',(7.09465810591239,6.34999999999999,-4.78868123037368E-15));
#469=CARTESIAN_POINT('',(1.45269399362223,6.34999999999999,-6.07826732072407E-15));
#470=CARTESIAN_POINT('',(3.78381765648661,6.34999999999999,-5.38749756651153E-15));
#471=CARTESIAN_POINT('',(0.082131630084103,0.465791620511564,-1.85200645412513E-15));
#472=CARTESIAN_POINT('',(0.082131630084103,0.465791620511564,-1.60420239234279E-15));
#473=CARTESIAN_POINT('',(0.657053040672852,3.7263329640925,-4.00561136949637E-15));
#474=CARTESIAN_POINT('',(1.06184841664551,6.02204162051155,-5.69641507217208E-15));
#475=CARTESIAN_POINT('',(1.06184841664551,6.02204162051155,-5.66695869048122E-15));
#476=CARTESIAN_POINT('',(0.65705304067285,3.7263329640925,-4.00561136949637E-15));
#477=CARTESIAN_POINT('',(6.11494131935098,-3.03576608295941E-15,1.19010866201273E-17));
#478=CARTESIAN_POINT('',(6.11494131935098,-3.03576608295941E-15,2.31605104541912E-18));
#479=CARTESIAN_POINT('',(3.78381765648661,-2.60208521396521E-15,-4.79337229242025E-16));
#480=CARTESIAN_POINT('',(0.472977207060826,-2.60208521396521E-15,-1.163418124811E-15));
#481=CARTESIAN_POINT('',(0.472977207060826,-2.60208521396521E-15,-1.30284941801527E-15));
#482=CARTESIAN_POINT('',(3.78381765648661,-2.60208521396521E-15,-4.79337229242026E-16));
#483=CARTESIAN_POINT('',(7.48550368288911,5.88420837948843,-4.28985302283383E-15));
#484=CARTESIAN_POINT('',(7.48550368288911,5.88420837948843,-4.26263240341077E-15));
#485=CARTESIAN_POINT('',(6.91058227230036,2.6236670359075,-1.8612234262572E-15));
#486=CARTESIAN_POINT('',(6.50578689632771,0.327958379488436,-1.70419723581478E-16));
#487=CARTESIAN_POINT('',(6.50578689632771,0.327958379488436,-3.69896621681372E-16));
#488=CARTESIAN_POINT('',(6.91058227230036,2.62366703590749,-1.86122342625719E-15));
#489=CARTESIAN_POINT('',(3.78381765648661,3.175,-6.93889390390723E-15));
#490=CARTESIAN_POINT('',(2.31105873455277,1.93920853179226,-6.93889390390723E-15));
#491=CARTESIAN_POINT('',(7.09465810591239,5.95312499999999,-4.39665664986322E-15));
#492=CARTESIAN_POINT('',(1.45269399362223,5.95312499999998,-5.56239082571963E-15));
#493=CARTESIAN_POINT('',(0.472977207060825,0.396875,-1.47017814589035E-15));
#494=CARTESIAN_POINT('',(6.11494131935098,0.396874999999999,-3.04443970033927E-16));
#495=CARTESIAN_POINT('',(3.78381765648661,3.175,-2.93341739787678E-15));
#496=CARTESIAN_POINT('',(7.09465810591239,5.95312499999999,-4.33680868994202E-15));
#497=CARTESIAN_POINT('',(6.11494131935098,0.396874999999999,-4.33680868994202E-16));
#498=CARTESIAN_POINT('',(0.472977207060825,0.396875,-1.73472347597681E-15));
#499=CARTESIAN_POINT('',(1.45269399362223,5.95312499999998,-5.63785129692462E-15));
#500=CARTESIAN_POINT('',(3.78381765648661,3.175,-0.54440332778528));
#501=CARTESIAN_POINT('',(5.22741450046084,4.38632157934746,-0.54440332778528));
#502=CARTESIAN_POINT('',(3.78381765648661,3.175,-0.680000000032641));
#503=CARTESIAN_POINT('',(3.78381765648661,3.175,-0.78228335760464));
#504=CARTESIAN_POINT('',(5.16633624892788,4.3350708410132,-0.78228335760464));
#505=CARTESIAN_POINT('',(3.78381765648661,3.175,-2.14607469113957));
#506=CARTESIAN_POINT('',(2.71135543612005,2.27509734643884,-2.14607469113957));
#507=CARTESIAN_POINT('',(3.78381765648661,3.175,-2.14607469113957));
#508=CARTESIAN_POINT('',(3.78381765648661,3.175,-33.3676978394524));
#509=CARTESIAN_POINT('',(3.78381765648661,3.175,-0.50952509089763));
#510=MECHANICAL_DESIGN_GEOMETRIC_PRESENTATION_REPRESENTATION('',(#265,#266,#267,
     #268),#511);
#511=(GEOMETRIC_REPRESENTATION_CONTEXT(3)GLOBAL_UNCERTAINTY_ASSIGNED_CONTEXT((#512))
     GLOBAL_UNIT_ASSIGNED_CONTEXT((#518,#514,#513))REPRESENTATION_CONTEXT('CCMW060204',
     'TOP_LEVEL_ASSEMBLY_PART'));
#512=UNCERTAINTY_MEASURE_WITH_UNIT(LENGTH_MEASURE(2.0E-5),#518,'DISTANCE_ACCURACY_VALUE',
     'Maximum Tolerance applied to model');
#513=(NAMED_UNIT(*)SI_UNIT($,.STERADIAN.)SOLID_ANGLE_UNIT());
#514=(CONVERSION_BASED_UNIT('DEGREE',#516)NAMED_UNIT(#515)PLANE_ANGLE_UNIT());
#515=DIMENSIONAL_EXPONENTS(0.0,0.0,0.0,0.0,0.0,0.0,0.0);
#516=PLANE_ANGLE_MEASURE_WITH_UNIT(PLANE_ANGLE_MEASURE(0.0174532925),#517);
#517=(NAMED_UNIT(*)PLANE_ANGLE_UNIT()SI_UNIT($,.RADIAN.));
#518=(LENGTH_UNIT()NAMED_UNIT(*)SI_UNIT(.MILLI.,.METRE.));
#519=CONSTRUCTIVE_GEOMETRY_REPRESENTATION('supplemental geometry',(#282,#283),#511);
#520=CONSTRUCTIVE_GEOMETRY_REPRESENTATION_RELATIONSHIP('supplemental geometry','contains PCS and MCS coordinate systems',
     #24,#519);
ENDSEC;
END-ISO-10303-21;
