ISO-10303-21;
HEADER;
/* Generated by software containing ST-Developer
 * from STEP Tools, Inc. (www.steptools.com) 
 */
/* OPTION: using custom schema-name function */

FILE_DESCRIPTION(
/* description */ (''),
/* implementation_level */ '2;1');

FILE_NAME(
/* name */ '1493819617413.stp',
/* time_stamp */ '2017-05-03T15:53:41+02:00',
/* author */ (''),
/* organization */ ('SMS'),
/* preprocessor_version */ 'ST-DEVELOPER v15',
/* originating_system */ 'SIEMENS PLM Software NX 8.5',
/* authorisation */ '');

FILE_SCHEMA (('AUTOMOTIVE_DESIGN { 1 0 10303 214 3 1 1 1 }'));
ENDSEC;

DATA;
#10=CONSTRUCTIVE_GEOMETRY_REPRESENTATION_RELATIONSHIP(
'supplemental geometry','',#24,#11);
#11=CONSTRUCTIVE_GEOMETRY_REPRESENTATION('supplemental geometry',(#309,
#310,#311),#528);
#12=SHAPE_REPRESENTATION_RELATIONSHIP('None',
'relationship between 200924852MOD000_01-None and 200924852MOD000_01-N
one',#24,#13);
#13=ADVANCED_BREP_SHAPE_REPRESENTATION('200924852MOD000_01-None',(#30),
#528);
#14=SHAPE_DEFINITION_REPRESENTATION(#15,#24);
#15=PRODUCT_DEFINITION_SHAPE('','',#16);
#16=PRODUCT_DEFINITION(' ','',#18,#17);
#17=PRODUCT_DEFINITION_CONTEXT('part definition',#23,'design');
#18=PRODUCT_DEFINITION_FORMATION_WITH_SPECIFIED_SOURCE(' ',' ',#20,
 .NOT_KNOWN.);
#19=PRODUCT_RELATED_PRODUCT_CATEGORY('part','',(#20));
#20=PRODUCT('200924852MOD000_01','200924852MOD000_01',' ',(#21));
#21=PRODUCT_CONTEXT(' ',#23,'mechanical');
#22=APPLICATION_PROTOCOL_DEFINITION('international standard',
'automotive_design',2010,#23);
#23=APPLICATION_CONTEXT(
'core data for automotive mechanical design processes');
#24=SHAPE_REPRESENTATION('200924852MOD000_01-None',(#308),#528);
#25=SURFACE_STYLE_USAGE(.BOTH.,#26);
#26=SURFACE_SIDE_STYLE('',(#27));
#27=SURFACE_STYLE_FILL_AREA(#28);
#28=FILL_AREA_STYLE('',(#29));
#29=FILL_AREA_STYLE_COLOUR('',#304);
#30=MANIFOLD_SOLID_BREP('',#31);
#31=CLOSED_SHELL('',(#73,#74,#75,#76,#77,#78,#79,#80,#81,#82,#83,#84,#85,
#86,#87,#88,#89,#90,#91,#92,#93,#94));
#32=FACE_OUTER_BOUND('',#144,.T.);
#33=FACE_OUTER_BOUND('',#145,.T.);
#34=FACE_OUTER_BOUND('',#146,.T.);
#35=FACE_OUTER_BOUND('',#147,.T.);
#36=FACE_OUTER_BOUND('',#148,.T.);
#37=FACE_OUTER_BOUND('',#149,.T.);
#38=FACE_OUTER_BOUND('',#150,.T.);
#39=FACE_OUTER_BOUND('',#163,.T.);
#40=CONICAL_SURFACE('',#325,8.73395968754297,2.20000000000004);
#41=CONICAL_SURFACE('',#327,7.15739615855783,5.99999999999999);
#42=CONICAL_SURFACE('',#337,12.1,60.);
#43=CONICAL_SURFACE('',#341,11.15,30.);
#44=CONICAL_SURFACE('',#351,14.,45.0000000000001);
#45=CONICAL_SURFACE('',#352,11.59405,45.);
#46=PLANE('',#323);
#47=PLANE('',#328);
#48=PLANE('',#329);
#49=PLANE('',#330);
#50=PLANE('',#331);
#51=PLANE('',#332);
#52=PLANE('',#333);
#53=PLANE('',#334);
#54=PLANE('',#335);
#55=PLANE('',#348);
#56=PLANE('',#350);
#57=LINE('',#463,#65);
#58=LINE('',#467,#66);
#59=LINE('',#468,#67);
#60=LINE('',#473,#68);
#61=LINE('',#492,#69);
#62=LINE('',#494,#70);
#63=LINE('',#497,#71);
#64=LINE('',#499,#72);
#65=VECTOR('',#369,1.);
#66=VECTOR('',#372,1.);
#67=VECTOR('',#373,1.);
#68=VECTOR('',#376,1.);
#69=VECTOR('',#401,1.);
#70=VECTOR('',#404,1.);
#71=VECTOR('',#409,1.);
#72=VECTOR('',#412,1.);
#73=ADVANCED_FACE('',(#100,#101),#95,.T.);
#74=ADVANCED_FACE('CU_SU1',(#102,#103,#104,#105),#96,.T.);
#75=ADVANCED_FACE('',(#106,#107),#46,.F.);
#76=ADVANCED_FACE('',(#108,#109),#40,.T.);
#77=ADVANCED_FACE('',(#110,#111),#41,.T.);
#78=ADVANCED_FACE('',(#112,#113),#47,.F.);
#79=ADVANCED_FACE('',(#32),#48,.F.);
#80=ADVANCED_FACE('',(#33),#49,.T.);
#81=ADVANCED_FACE('CU_SU3',(#34),#50,.T.);
#82=ADVANCED_FACE('',(#35),#51,.T.);
#83=ADVANCED_FACE('',(#36),#52,.T.);
#84=ADVANCED_FACE('CU_SU4',(#37),#53,.T.);
#85=ADVANCED_FACE('',(#38),#54,.T.);
#86=ADVANCED_FACE('',(#114,#115),#42,.T.);
#87=ADVANCED_FACE('',(#116,#117),#97,.T.);
#88=ADVANCED_FACE('',(#118,#119),#43,.T.);
#89=ADVANCED_FACE('',(#120,#121),#98,.T.);
#90=ADVANCED_FACE('',(#122,#123),#99,.T.);
#91=ADVANCED_FACE('',(#124,#125),#55,.T.);
#92=ADVANCED_FACE('',(#39),#56,.T.);
#93=ADVANCED_FACE('',(#126,#127),#44,.T.);
#94=ADVANCED_FACE('',(#128,#129),#45,.F.);
#95=CYLINDRICAL_SURFACE('',#314,5.2);
#96=CYLINDRICAL_SURFACE('',#321,12.1);
#97=CYLINDRICAL_SURFACE('',#339,11.15);
#98=CYLINDRICAL_SURFACE('',#343,12.);
#99=CYLINDRICAL_SURFACE('',#346,14.);
#100=FACE_BOUND('',#130,.T.);
#101=FACE_BOUND('',#131,.T.);
#102=FACE_BOUND('',#132,.T.);
#103=FACE_BOUND('',#133,.T.);
#104=FACE_BOUND('',#134,.T.);
#105=FACE_BOUND('',#135,.T.);
#106=FACE_BOUND('',#136,.T.);
#107=FACE_BOUND('',#137,.T.);
#108=FACE_BOUND('',#138,.T.);
#109=FACE_BOUND('',#139,.T.);
#110=FACE_BOUND('',#140,.T.);
#111=FACE_BOUND('',#141,.T.);
#112=FACE_BOUND('',#142,.T.);
#113=FACE_BOUND('',#143,.T.);
#114=FACE_BOUND('',#151,.T.);
#115=FACE_BOUND('',#152,.T.);
#116=FACE_BOUND('',#153,.T.);
#117=FACE_BOUND('',#154,.T.);
#118=FACE_BOUND('',#155,.T.);
#119=FACE_BOUND('',#156,.T.);
#120=FACE_BOUND('',#157,.T.);
#121=FACE_BOUND('',#158,.T.);
#122=FACE_BOUND('',#159,.T.);
#123=FACE_BOUND('',#160,.T.);
#124=FACE_BOUND('',#161,.T.);
#125=FACE_BOUND('',#162,.T.);
#126=FACE_BOUND('',#164,.T.);
#127=FACE_BOUND('',#165,.T.);
#128=FACE_BOUND('',#166,.T.);
#129=FACE_BOUND('',#167,.T.);
#130=EDGE_LOOP('',(#168));
#131=EDGE_LOOP('',(#169));
#132=EDGE_LOOP('',(#170,#171,#172,#173));
#133=EDGE_LOOP('',(#174,#175,#176,#177));
#134=EDGE_LOOP('',(#178));
#135=EDGE_LOOP('',(#179));
#136=EDGE_LOOP('',(#180));
#137=EDGE_LOOP('',(#181));
#138=EDGE_LOOP('',(#182));
#139=EDGE_LOOP('',(#183));
#140=EDGE_LOOP('',(#184));
#141=EDGE_LOOP('',(#185));
#142=EDGE_LOOP('',(#186));
#143=EDGE_LOOP('',(#187));
#144=EDGE_LOOP('',(#188));
#145=EDGE_LOOP('',(#189,#190));
#146=EDGE_LOOP('',(#191,#192,#193,#194));
#147=EDGE_LOOP('',(#195,#196));
#148=EDGE_LOOP('',(#197,#198));
#149=EDGE_LOOP('',(#199,#200,#201,#202));
#150=EDGE_LOOP('',(#203,#204));
#151=EDGE_LOOP('',(#205));
#152=EDGE_LOOP('',(#206));
#153=EDGE_LOOP('',(#207));
#154=EDGE_LOOP('',(#208));
#155=EDGE_LOOP('',(#209));
#156=EDGE_LOOP('',(#210));
#157=EDGE_LOOP('',(#211));
#158=EDGE_LOOP('',(#212));
#159=EDGE_LOOP('',(#213));
#160=EDGE_LOOP('',(#214));
#161=EDGE_LOOP('',(#215));
#162=EDGE_LOOP('',(#216));
#163=EDGE_LOOP('',(#217));
#164=EDGE_LOOP('',(#218));
#165=EDGE_LOOP('',(#219));
#166=EDGE_LOOP('',(#220));
#167=EDGE_LOOP('',(#221));
#168=ORIENTED_EDGE('',*,*,#245,.F.);
#169=ORIENTED_EDGE('',*,*,#246,.T.);
#170=ORIENTED_EDGE('',*,*,#247,.F.);
#171=ORIENTED_EDGE('',*,*,#248,.F.);
#172=ORIENTED_EDGE('',*,*,#249,.F.);
#173=ORIENTED_EDGE('',*,*,#250,.F.);
#174=ORIENTED_EDGE('',*,*,#251,.F.);
#175=ORIENTED_EDGE('',*,*,#252,.F.);
#176=ORIENTED_EDGE('',*,*,#253,.F.);
#177=ORIENTED_EDGE('',*,*,#254,.F.);
#178=ORIENTED_EDGE('',*,*,#255,.F.);
#179=ORIENTED_EDGE('',*,*,#256,.T.);
#180=ORIENTED_EDGE('',*,*,#257,.T.);
#181=ORIENTED_EDGE('',*,*,#256,.F.);
#182=ORIENTED_EDGE('',*,*,#257,.F.);
#183=ORIENTED_EDGE('',*,*,#258,.T.);
#184=ORIENTED_EDGE('',*,*,#258,.F.);
#185=ORIENTED_EDGE('',*,*,#259,.T.);
#186=ORIENTED_EDGE('',*,*,#245,.T.);
#187=ORIENTED_EDGE('',*,*,#259,.F.);
#188=ORIENTED_EDGE('',*,*,#246,.F.);
#189=ORIENTED_EDGE('',*,*,#252,.T.);
#190=ORIENTED_EDGE('',*,*,#260,.F.);
#191=ORIENTED_EDGE('',*,*,#253,.T.);
#192=ORIENTED_EDGE('',*,*,#260,.T.);
#193=ORIENTED_EDGE('',*,*,#251,.T.);
#194=ORIENTED_EDGE('',*,*,#261,.F.);
#195=ORIENTED_EDGE('',*,*,#254,.T.);
#196=ORIENTED_EDGE('',*,*,#261,.T.);
#197=ORIENTED_EDGE('',*,*,#247,.T.);
#198=ORIENTED_EDGE('',*,*,#262,.F.);
#199=ORIENTED_EDGE('',*,*,#248,.T.);
#200=ORIENTED_EDGE('',*,*,#262,.T.);
#201=ORIENTED_EDGE('',*,*,#250,.T.);
#202=ORIENTED_EDGE('',*,*,#263,.F.);
#203=ORIENTED_EDGE('',*,*,#249,.T.);
#204=ORIENTED_EDGE('',*,*,#263,.T.);
#205=ORIENTED_EDGE('',*,*,#264,.T.);
#206=ORIENTED_EDGE('',*,*,#255,.T.);
#207=ORIENTED_EDGE('',*,*,#265,.T.);
#208=ORIENTED_EDGE('',*,*,#264,.F.);
#209=ORIENTED_EDGE('',*,*,#266,.T.);
#210=ORIENTED_EDGE('',*,*,#265,.F.);
#211=ORIENTED_EDGE('',*,*,#267,.F.);
#212=ORIENTED_EDGE('',*,*,#266,.F.);
#213=ORIENTED_EDGE('',*,*,#268,.T.);
#214=ORIENTED_EDGE('',*,*,#269,.F.);
#215=ORIENTED_EDGE('',*,*,#269,.T.);
#216=ORIENTED_EDGE('',*,*,#270,.F.);
#217=ORIENTED_EDGE('',*,*,#271,.F.);
#218=ORIENTED_EDGE('',*,*,#268,.F.);
#219=ORIENTED_EDGE('',*,*,#271,.T.);
#220=ORIENTED_EDGE('',*,*,#267,.T.);
#221=ORIENTED_EDGE('',*,*,#270,.T.);
#222=VERTEX_POINT('',#456);
#223=VERTEX_POINT('',#458);
#224=VERTEX_POINT('',#461);
#225=VERTEX_POINT('',#462);
#226=VERTEX_POINT('',#464);
#227=VERTEX_POINT('',#466);
#228=VERTEX_POINT('',#469);
#229=VERTEX_POINT('',#470);
#230=VERTEX_POINT('',#472);
#231=VERTEX_POINT('',#474);
#232=VERTEX_POINT('',#477);
#233=VERTEX_POINT('',#479);
#234=VERTEX_POINT('',#482);
#235=VERTEX_POINT('',#485);
#236=VERTEX_POINT('',#488);
#237=VERTEX_POINT('',#503);
#238=VERTEX_POINT('',#506);
#239=VERTEX_POINT('',#509);
#240=VERTEX_POINT('',#512);
#241=VERTEX_POINT('',#515);
#242=VERTEX_POINT('',#517);
#243=VERTEX_POINT('',#520);
#244=VERTEX_POINT('',#523);
#245=EDGE_CURVE('',#222,#222,#272,.T.);
#246=EDGE_CURVE('',#223,#223,#273,.T.);
#247=EDGE_CURVE('',#224,#225,#274,.T.);
#248=EDGE_CURVE('',#226,#224,#57,.T.);
#249=EDGE_CURVE('',#227,#226,#275,.T.);
#250=EDGE_CURVE('',#225,#227,#58,.T.);
#251=EDGE_CURVE('',#228,#229,#59,.T.);
#252=EDGE_CURVE('',#230,#228,#276,.T.);
#253=EDGE_CURVE('',#231,#230,#60,.T.);
#254=EDGE_CURVE('',#229,#231,#277,.T.);
#255=EDGE_CURVE('',#232,#232,#278,.T.);
#256=EDGE_CURVE('',#233,#233,#279,.T.);
#257=EDGE_CURVE('',#234,#234,#280,.T.);
#258=EDGE_CURVE('',#235,#235,#281,.T.);
#259=EDGE_CURVE('',#236,#236,#282,.T.);
#260=EDGE_CURVE('',#230,#228,#61,.T.);
#261=EDGE_CURVE('',#231,#229,#62,.T.);
#262=EDGE_CURVE('',#224,#225,#63,.T.);
#263=EDGE_CURVE('',#226,#227,#64,.T.);
#264=EDGE_CURVE('',#237,#237,#283,.T.);
#265=EDGE_CURVE('',#238,#238,#284,.T.);
#266=EDGE_CURVE('',#239,#239,#285,.T.);
#267=EDGE_CURVE('',#240,#240,#286,.T.);
#268=EDGE_CURVE('',#241,#241,#287,.T.);
#269=EDGE_CURVE('',#242,#242,#288,.T.);
#270=EDGE_CURVE('',#243,#243,#289,.T.);
#271=EDGE_CURVE('',#244,#244,#290,.T.);
#272=CIRCLE('',#312,5.2);
#273=CIRCLE('',#313,5.2);
#274=CIRCLE('',#315,12.1);
#275=CIRCLE('',#316,12.1);
#276=CIRCLE('',#317,12.1);
#277=CIRCLE('',#318,12.1);
#278=CIRCLE('',#319,12.1);
#279=CIRCLE('',#320,12.1);
#280=CIRCLE('',#322,8.90683224996563);
#281=CIRCLE('',#324,8.73395968754297);
#282=CIRCLE('',#326,7.15739615855783);
#283=CIRCLE('',#336,11.15);
#284=CIRCLE('',#338,11.15);
#285=CIRCLE('',#340,12.);
#286=CIRCLE('',#342,12.);
#287=CIRCLE('',#344,14.);
#288=CIRCLE('',#345,14.);
#289=CIRCLE('',#347,12.09405);
#290=CIRCLE('',#349,13.);
#291=PRESENTATION_LAYER_ASSIGNMENT('1','Layer 1',(#309,#310,#311,#30));
#292=STYLED_ITEM('',(#296),#309);
#293=STYLED_ITEM('',(#297),#310);
#294=STYLED_ITEM('',(#298),#311);
#295=STYLED_ITEM('',(#299),#30);
#296=PRESENTATION_STYLE_ASSIGNMENT((#300));
#297=PRESENTATION_STYLE_ASSIGNMENT((#301));
#298=PRESENTATION_STYLE_ASSIGNMENT((#302));
#299=PRESENTATION_STYLE_ASSIGNMENT((#25));
#300=CURVE_STYLE('',#305,POSITIVE_LENGTH_MEASURE(0.13),#303);
#301=CURVE_STYLE('',#306,POSITIVE_LENGTH_MEASURE(0.13),#303);
#302=CURVE_STYLE('',#307,POSITIVE_LENGTH_MEASURE(0.13),#303);
#303=COLOUR_RGB('Strong Emerald',0.,0.803921568627451,0.525490196078431);
#304=COLOUR_RGB('TLS_NOCUT',0.499992370489052,0.499992370489052,0.499992370489052);
#305=DRAUGHTING_PRE_DEFINED_CURVE_FONT('continuous');
#306=DRAUGHTING_PRE_DEFINED_CURVE_FONT('continuous');
#307=DRAUGHTING_PRE_DEFINED_CURVE_FONT('continuous');
#308=AXIS2_PLACEMENT_3D('',#451,#353,#354);
#309=AXIS2_PLACEMENT_3D('PCS',#452,#355,#356);
#310=AXIS2_PLACEMENT_3D('MCS',#453,#357,#358);
#311=AXIS2_PLACEMENT_3D('CSW',#454,#359,#360);
#312=AXIS2_PLACEMENT_3D('',#455,#361,#362);
#313=AXIS2_PLACEMENT_3D('',#457,#363,#364);
#314=AXIS2_PLACEMENT_3D('',#459,#365,#366);
#315=AXIS2_PLACEMENT_3D('',#460,#367,#368);
#316=AXIS2_PLACEMENT_3D('',#465,#370,#371);
#317=AXIS2_PLACEMENT_3D('',#471,#374,#375);
#318=AXIS2_PLACEMENT_3D('',#475,#377,#378);
#319=AXIS2_PLACEMENT_3D('',#476,#379,#380);
#320=AXIS2_PLACEMENT_3D('',#478,#381,#382);
#321=AXIS2_PLACEMENT_3D('',#480,#383,#384);
#322=AXIS2_PLACEMENT_3D('',#481,#385,#386);
#323=AXIS2_PLACEMENT_3D('',#483,#387,#388);
#324=AXIS2_PLACEMENT_3D('',#484,#389,#390);
#325=AXIS2_PLACEMENT_3D('',#486,#391,#392);
#326=AXIS2_PLACEMENT_3D('',#487,#393,#394);
#327=AXIS2_PLACEMENT_3D('',#489,#395,#396);
#328=AXIS2_PLACEMENT_3D('',#490,#397,#398);
#329=AXIS2_PLACEMENT_3D('',#491,#399,#400);
#330=AXIS2_PLACEMENT_3D('',#493,#402,#403);
#331=AXIS2_PLACEMENT_3D('',#495,#405,#406);
#332=AXIS2_PLACEMENT_3D('',#496,#407,#408);
#333=AXIS2_PLACEMENT_3D('',#498,#410,#411);
#334=AXIS2_PLACEMENT_3D('',#500,#413,#414);
#335=AXIS2_PLACEMENT_3D('',#501,#415,#416);
#336=AXIS2_PLACEMENT_3D('',#502,#417,#418);
#337=AXIS2_PLACEMENT_3D('',#504,#419,#420);
#338=AXIS2_PLACEMENT_3D('',#505,#421,#422);
#339=AXIS2_PLACEMENT_3D('',#507,#423,#424);
#340=AXIS2_PLACEMENT_3D('',#508,#425,#426);
#341=AXIS2_PLACEMENT_3D('',#510,#427,#428);
#342=AXIS2_PLACEMENT_3D('',#511,#429,#430);
#343=AXIS2_PLACEMENT_3D('',#513,#431,#432);
#344=AXIS2_PLACEMENT_3D('',#514,#433,#434);
#345=AXIS2_PLACEMENT_3D('',#516,#435,#436);
#346=AXIS2_PLACEMENT_3D('',#518,#437,#438);
#347=AXIS2_PLACEMENT_3D('',#519,#439,#440);
#348=AXIS2_PLACEMENT_3D('',#521,#441,#442);
#349=AXIS2_PLACEMENT_3D('',#522,#443,#444);
#350=AXIS2_PLACEMENT_3D('',#524,#445,#446);
#351=AXIS2_PLACEMENT_3D('',#525,#447,#448);
#352=AXIS2_PLACEMENT_3D('',#526,#449,#450);
#353=DIRECTION('',(0.,0.,1.));
#354=DIRECTION('',(1.,0.,0.));
#355=DIRECTION('',(0.,0.,1.));
#356=DIRECTION('',(1.,0.,0.));
#357=DIRECTION('',(0.,0.,1.));
#358=DIRECTION('',(1.,0.,0.));
#359=DIRECTION('',(0.,0.,1.));
#360=DIRECTION('',(1.,0.,0.));
#361=DIRECTION('',(0.,0.,-1.));
#362=DIRECTION('',(-1.,0.,0.));
#363=DIRECTION('',(0.,0.,-1.));
#364=DIRECTION('',(-1.,0.,0.));
#365=DIRECTION('',(0.,0.,-1.));
#366=DIRECTION('',(1.,0.,0.));
#367=DIRECTION('',(0.,0.,1.));
#368=DIRECTION('',(-1.,0.,0.));
#369=DIRECTION('',(0.,0.,-1.));
#370=DIRECTION('',(0.,-1.0842021724855E-016,-1.));
#371=DIRECTION('',(0.,1.,-1.07524182395257E-016));
#372=DIRECTION('',(0.,0.,1.));
#373=DIRECTION('',(0.,0.,1.));
#374=DIRECTION('',(0.,0.,1.));
#375=DIRECTION('',(-1.,0.,0.));
#376=DIRECTION('',(0.,0.,-1.));
#377=DIRECTION('',(0.,1.0842021724855E-016,-1.));
#378=DIRECTION('',(0.,1.,1.07524182395257E-016));
#379=DIRECTION('',(0.,0.,-1.));
#380=DIRECTION('',(1.,0.,0.));
#381=DIRECTION('',(0.,0.,-1.));
#382=DIRECTION('',(1.,0.,0.));
#383=DIRECTION('',(0.,0.,-1.));
#384=DIRECTION('',(1.,0.,0.));
#385=DIRECTION('',(0.,0.,-1.));
#386=DIRECTION('',(-1.,0.,0.));
#387=DIRECTION('',(0.,0.,-1.));
#388=DIRECTION('',(1.,0.,0.));
#389=DIRECTION('',(0.,0.,-1.));
#390=DIRECTION('',(1.,0.,0.));
#391=DIRECTION('',(0.,0.,-1.));
#392=DIRECTION('',(1.,0.,-1.08534996064366E-015));
#393=DIRECTION('',(0.,0.,-1.));
#394=DIRECTION('',(1.,0.,0.));
#395=DIRECTION('',(0.,0.,-1.));
#396=DIRECTION('',(1.,0.,-3.39955120795183E-016));
#397=DIRECTION('',(0.,0.,-1.));
#398=DIRECTION('',(1.,0.,0.));
#399=DIRECTION('',(0.,0.,-1.));
#400=DIRECTION('',(1.,0.,0.));
#401=DIRECTION('',(1.,0.,0.));
#402=DIRECTION('',(0.,0.,1.));
#403=DIRECTION('',(-1.,0.,0.));
#404=DIRECTION('',(1.,0.,0.));
#405=DIRECTION('',(0.,-1.,0.));
#406=DIRECTION('',(0.,0.,-1.));
#407=DIRECTION('',(0.,1.0842021724855E-016,-1.));
#408=DIRECTION('',(0.,1.,1.0842021724855E-016));
#409=DIRECTION('',(-1.,0.,0.));
#410=DIRECTION('',(0.,0.,1.));
#411=DIRECTION('',(-1.,0.,0.));
#412=DIRECTION('',(-1.,0.,0.));
#413=DIRECTION('',(0.,1.,0.));
#414=DIRECTION('',(0.,0.,-1.));
#415=DIRECTION('',(0.,-1.0842021724855E-016,-1.));
#416=DIRECTION('',(0.,-1.,1.0842021724855E-016));
#417=DIRECTION('',(0.,0.,1.));
#418=DIRECTION('',(-1.,0.,0.));
#419=DIRECTION('',(0.,0.,1.));
#420=DIRECTION('',(-1.,0.,2.68540619584721E-017));
#421=DIRECTION('',(0.,0.,1.));
#422=DIRECTION('',(-1.,0.,0.));
#423=DIRECTION('',(0.,0.,1.));
#424=DIRECTION('',(-1.,0.,0.));
#425=DIRECTION('',(0.,0.,1.));
#426=DIRECTION('',(-1.,0.,0.));
#427=DIRECTION('',(0.,0.,-1.));
#428=DIRECTION('',(1.,0.,-4.71632335085399E-017));
#429=DIRECTION('',(0.,0.,-1.));
#430=DIRECTION('',(1.,0.,0.));
#431=DIRECTION('',(0.,0.,1.));
#432=DIRECTION('',(-1.,0.,0.));
#433=DIRECTION('',(0.,0.,1.));
#434=DIRECTION('',(-0.00833082116574994,0.999965298107241,0.));
#435=DIRECTION('',(0.,0.,1.));
#436=DIRECTION('',(-0.00833082116574994,0.999965298107241,0.));
#437=DIRECTION('',(0.,0.,1.));
#438=DIRECTION('',(-0.00833082116574994,0.999965298107241,0.));
#439=DIRECTION('',(0.,0.,1.));
#440=DIRECTION('',(-0.00833082116574994,0.999965298107241,0.));
#441=DIRECTION('',(0.,0.,1.));
#442=DIRECTION('',(-0.00833082116574994,0.999965298107241,0.));
#443=DIRECTION('',(0.,0.,1.));
#444=DIRECTION('',(-0.00833082116574994,0.999965298107241,0.));
#445=DIRECTION('',(0.,0.,-1.));
#446=DIRECTION('',(0.00833082116574994,-0.999965298107241,0.));
#447=DIRECTION('',(0.,0.,1.));
#448=DIRECTION('',(-0.00833082116574994,0.999965298107241,-3.42154531750849E-017));
#449=DIRECTION('',(0.,0.,1.));
#450=DIRECTION('',(-0.00833082116574994,0.999965298107241,3.42968303535753E-017));
#451=CARTESIAN_POINT('',(0.,0.,0.));
#452=CARTESIAN_POINT('',(0.,0.,0.));
#453=CARTESIAN_POINT('',(0.,0.,0.));
#454=CARTESIAN_POINT('',(0.,0.,-30.5));
#455=CARTESIAN_POINT('',(0.,0.,19.5));
#456=CARTESIAN_POINT('',(-5.2,0.,19.5));
#457=CARTESIAN_POINT('',(0.,0.,24.));
#458=CARTESIAN_POINT('',(-5.2,0.,24.));
#459=CARTESIAN_POINT('',(0.,0.,66.0749858115762));
#460=CARTESIAN_POINT('',(0.,0.,-8.5));
#461=CARTESIAN_POINT('',(6.81248853210045,10.,-8.5));
#462=CARTESIAN_POINT('',(-6.81248853210045,10.,-8.5));
#463=CARTESIAN_POINT('',(6.81248853210044,10.,66.0749858115762));
#464=CARTESIAN_POINT('',(6.81248853210045,10.,-2.));
#465=CARTESIAN_POINT('',(0.,0.,-2.));
#466=CARTESIAN_POINT('',(-6.81248853210045,10.,-2.));
#467=CARTESIAN_POINT('',(-6.81248853210044,10.,66.0749858115762));
#468=CARTESIAN_POINT('',(6.81248853210044,-10.,66.0749858115762));
#469=CARTESIAN_POINT('',(6.81248853210045,-10.,-8.5));
#470=CARTESIAN_POINT('',(6.81248853210045,-10.,-2.));
#471=CARTESIAN_POINT('',(0.,0.,-8.5));
#472=CARTESIAN_POINT('',(-6.81248853210045,-10.,-8.5));
#473=CARTESIAN_POINT('',(-6.81248853210044,-10.,66.0749858115762));
#474=CARTESIAN_POINT('',(-6.81248853210044,-10.,-2.));
#475=CARTESIAN_POINT('',(0.,0.,-2.));
#476=CARTESIAN_POINT('',(0.,0.,-10.5));
#477=CARTESIAN_POINT('',(12.1,0.,-10.5));
#478=CARTESIAN_POINT('',(0.,0.,0.));
#479=CARTESIAN_POINT('',(12.1,0.,0.));
#480=CARTESIAN_POINT('',(0.,0.,66.0749858115762));
#481=CARTESIAN_POINT('',(0.,0.,0.));
#482=CARTESIAN_POINT('',(-8.90683224996563,0.,0.));
#483=CARTESIAN_POINT('',(8.90683224996563,0.,-2.19973379152024E-016));
#484=CARTESIAN_POINT('',(0.,0.,4.5));
#485=CARTESIAN_POINT('',(8.73395968754297,0.,4.5));
#486=CARTESIAN_POINT('',(0.,0.,4.5));
#487=CARTESIAN_POINT('',(0.,0.,19.5));
#488=CARTESIAN_POINT('',(7.15739615855783,0.,19.5));
#489=CARTESIAN_POINT('',(0.,0.,19.5));
#490=CARTESIAN_POINT('',(5.2,0.,19.5));
#491=CARTESIAN_POINT('',(0.,0.,24.));
#492=CARTESIAN_POINT('',(10.,-10.,-8.5));
#493=CARTESIAN_POINT('',(10.,-14.,-8.5));
#494=CARTESIAN_POINT('',(10.,-10.,-2.));
#495=CARTESIAN_POINT('',(10.,-10.,-8.5));
#496=CARTESIAN_POINT('',(10.,-10.,-2.));
#497=CARTESIAN_POINT('',(10.,10.,-8.5));
#498=CARTESIAN_POINT('',(10.,14.,-8.5));
#499=CARTESIAN_POINT('',(10.,10.,-2.));
#500=CARTESIAN_POINT('',(10.,10.,-8.5));
#501=CARTESIAN_POINT('',(10.,10.,-2.));
#502=CARTESIAN_POINT('',(1.77635683940025E-015,0.,-11.0484827557301));
#503=CARTESIAN_POINT('',(-11.15,0.,-11.0484827557301));
#504=CARTESIAN_POINT('',(1.77635683940025E-015,0.,-10.5));
#505=CARTESIAN_POINT('',(1.77635683940025E-015,0.,-17.5484827557301));
#506=CARTESIAN_POINT('',(-11.15,0.,-17.5484827557301));
#507=CARTESIAN_POINT('',(1.77635683940025E-015,0.,-10.5));
#508=CARTESIAN_POINT('',(1.77635683940025E-015,0.,-19.0207259421637));
#509=CARTESIAN_POINT('',(-12.,0.,-19.0207259421637));
#510=CARTESIAN_POINT('',(1.77635683940025E-015,0.,-17.5484827557301));
#511=CARTESIAN_POINT('',(1.77513962174431E-015,4.64836669093529E-017,-23.09405));
#512=CARTESIAN_POINT('',(12.,4.64836669093529E-017,-23.09405));
#513=CARTESIAN_POINT('',(1.77635683940025E-015,0.,-10.5));
#514=CARTESIAN_POINT('',(1.77513962174431E-015,4.64836669093529E-017,-41.));
#515=CARTESIAN_POINT('',(-0.116631496320497,13.9995141735014,-41.));
#516=CARTESIAN_POINT('',(1.77513962174431E-015,4.64836669093529E-017,-23.));
#517=CARTESIAN_POINT('',(-0.116631496320497,13.9995141735014,-23.));
#518=CARTESIAN_POINT('',(1.77513962174431E-015,4.64836669093529E-017,46.4786959733241));
#519=CARTESIAN_POINT('',(1.77513962174431E-015,4.64836669093529E-017,-23.));
#520=CARTESIAN_POINT('',(-0.100753367719636,12.0936303135739,-23.));
#521=CARTESIAN_POINT('',(-12.0936303135739,-0.100753367719638,-23.));
#522=CARTESIAN_POINT('',(1.77513962174431E-015,4.64836669093529E-017,-42.));
#523=CARTESIAN_POINT('',(-0.108300675154747,12.9995488753941,-42.));
#524=CARTESIAN_POINT('',(-12.9995488753941,-0.108300675154749,-42.));
#525=CARTESIAN_POINT('',(1.77513962174431E-015,4.64836669093529E-017,-41.));
#526=CARTESIAN_POINT('',(1.77513962174431E-015,4.64836669093529E-017,-23.5));
#527=MECHANICAL_DESIGN_GEOMETRIC_PRESENTATION_REPRESENTATION('',(#292,#293,
#294,#295),#528);
#528=(
GEOMETRIC_REPRESENTATION_CONTEXT(3)
GLOBAL_UNCERTAINTY_ASSIGNED_CONTEXT((#529))
GLOBAL_UNIT_ASSIGNED_CONTEXT((#535,#531,#530))
REPRESENTATION_CONTEXT('1493819617413','TOP_LEVEL_ASSEMBLY_PART')
);
#529=UNCERTAINTY_MEASURE_WITH_UNIT(LENGTH_MEASURE(2.E-005),#535,
'DISTANCE_ACCURACY_VALUE','Maximum Tolerance applied to model');
#530=(
NAMED_UNIT(*)
SI_UNIT($,.STERADIAN.)
SOLID_ANGLE_UNIT()
);
#531=(
CONVERSION_BASED_UNIT('DEGREE',#533)
NAMED_UNIT(#532)
PLANE_ANGLE_UNIT()
);
#532=DIMENSIONAL_EXPONENTS(0.,0.,0.,0.,0.,0.,0.);
#533=PLANE_ANGLE_MEASURE_WITH_UNIT(PLANE_ANGLE_MEASURE(0.0174532925),#534);
#534=(
NAMED_UNIT(*)
PLANE_ANGLE_UNIT()
SI_UNIT($,.RADIAN.)
);
#535=(
LENGTH_UNIT()
NAMED_UNIT(*)
SI_UNIT(.MILLI.,.METRE.)
);
ENDSEC;
END-ISO-10303-21;
