ISO-10303-21;
HEADER;
/* Generated by software containing ST-Developer
 * from STEP Tools, Inc. (www.steptools.com) 
 */
/* OPTION: using custom schema-name function */

FILE_DESCRIPTION(
/* description */ (''),
/* implementation_level */ '2;1');

FILE_NAME(
/* name */ '1493897942130.stp',
/* time_stamp */ '2017-05-04T13:39:06+02:00',
/* author */ (''),
/* organization */ ('SMS'),
/* preprocessor_version */ 'ST-DEVELOPER v15',
/* originating_system */ 'SIEMENS PLM Software NX 8.5',
/* authorisation */ '');

FILE_SCHEMA (('AUTOMOTIVE_DESIGN { 1 0 10303 214 3 1 1 1 }'));
ENDSEC;

DATA;
#10=CONSTRUCTIVE_GEOMETRY_REPRESENTATION_RELATIONSHIP(
'supplemental geometry','',#24,#11);
#11=CONSTRUCTIVE_GEOMETRY_REPRESENTATION('supplemental geometry',(#173,
#174,#175),#292);
#12=SHAPE_REPRESENTATION_RELATIONSHIP('None',
'relationship between 200924846MOD000_01-None and 200924846MOD000_01-N
one',#24,#13);
#13=ADVANCED_BREP_SHAPE_REPRESENTATION('200924846MOD000_01-None',(#30),
#292);
#14=SHAPE_DEFINITION_REPRESENTATION(#15,#24);
#15=PRODUCT_DEFINITION_SHAPE('','',#16);
#16=PRODUCT_DEFINITION(' ','',#18,#17);
#17=PRODUCT_DEFINITION_CONTEXT('part definition',#23,'design');
#18=PRODUCT_DEFINITION_FORMATION_WITH_SPECIFIED_SOURCE(' ',' ',#20,
 .NOT_KNOWN.);
#19=PRODUCT_RELATED_PRODUCT_CATEGORY('part','',(#20));
#20=PRODUCT('200924846MOD000_01','200924846MOD000_01',' ',(#21));
#21=PRODUCT_CONTEXT(' ',#23,'mechanical');
#22=APPLICATION_PROTOCOL_DEFINITION('international standard',
'automotive_design',2010,#23);
#23=APPLICATION_CONTEXT(
'core data for automotive mechanical design processes');
#24=SHAPE_REPRESENTATION('200924846MOD000_01-None',(#172),#292);
#25=SURFACE_STYLE_USAGE(.BOTH.,#26);
#26=SURFACE_SIDE_STYLE('',(#27));
#27=SURFACE_STYLE_FILL_AREA(#28);
#28=FILL_AREA_STYLE('',(#29));
#29=FILL_AREA_STYLE_COLOUR('',#168);
#30=MANIFOLD_SOLID_BREP('',#31);
#31=CLOSED_SHELL('',(#43,#44,#45,#46,#47,#48,#49,#50,#51,#52,#53,#54));
#32=TOROIDAL_SURFACE('',#189,19.725,0.5);
#33=TOROIDAL_SURFACE('',#198,14.7,7.);
#34=CYLINDRICAL_SURFACE('',#183,18.1);
#35=CYLINDRICAL_SURFACE('',#197,7.7);
#36=PLANE('',#179);
#37=PLANE('',#181);
#38=PLANE('',#185);
#39=PLANE('',#193);
#40=PLANE('',#195);
#41=FACE_OUTER_BOUND('',#80,.T.);
#42=FACE_OUTER_BOUND('',#95,.T.);
#43=ADVANCED_FACE('',(#58,#59),#55,.T.);
#44=ADVANCED_FACE('',(#41),#36,.F.);
#45=ADVANCED_FACE('',(#60,#61),#37,.F.);
#46=ADVANCED_FACE('',(#62,#63),#34,.T.);
#47=ADVANCED_FACE('',(#64,#65),#38,.F.);
#48=ADVANCED_FACE('',(#66,#67),#56,.T.);
#49=ADVANCED_FACE('',(#68,#69),#32,.T.);
#50=ADVANCED_FACE('',(#70,#71),#57,.T.);
#51=ADVANCED_FACE('',(#72,#73),#39,.F.);
#52=ADVANCED_FACE('',(#42),#40,.T.);
#53=ADVANCED_FACE('',(#74,#75),#35,.T.);
#54=ADVANCED_FACE('',(#76,#77),#33,.F.);
#55=CONICAL_SURFACE('',#178,15.1551248688866,8.);
#56=CONICAL_SURFACE('',#187,20.0547005383792,30.0000000000001);
#57=CONICAL_SURFACE('',#191,20.1580127018922,30.);
#58=FACE_BOUND('',#78,.T.);
#59=FACE_BOUND('',#79,.T.);
#60=FACE_BOUND('',#81,.T.);
#61=FACE_BOUND('',#82,.T.);
#62=FACE_BOUND('',#83,.T.);
#63=FACE_BOUND('',#84,.T.);
#64=FACE_BOUND('',#85,.T.);
#65=FACE_BOUND('',#86,.T.);
#66=FACE_BOUND('',#87,.T.);
#67=FACE_BOUND('',#88,.T.);
#68=FACE_BOUND('',#89,.T.);
#69=FACE_BOUND('',#90,.T.);
#70=FACE_BOUND('',#91,.T.);
#71=FACE_BOUND('',#92,.T.);
#72=FACE_BOUND('',#93,.T.);
#73=FACE_BOUND('',#94,.T.);
#74=FACE_BOUND('',#96,.T.);
#75=FACE_BOUND('',#97,.T.);
#76=FACE_BOUND('',#98,.T.);
#77=FACE_BOUND('',#99,.T.);
#78=EDGE_LOOP('',(#100));
#79=EDGE_LOOP('',(#101));
#80=EDGE_LOOP('',(#102));
#81=EDGE_LOOP('',(#103));
#82=EDGE_LOOP('',(#104));
#83=EDGE_LOOP('',(#105));
#84=EDGE_LOOP('',(#106));
#85=EDGE_LOOP('',(#107));
#86=EDGE_LOOP('',(#108));
#87=EDGE_LOOP('',(#109));
#88=EDGE_LOOP('',(#110));
#89=EDGE_LOOP('',(#111));
#90=EDGE_LOOP('',(#112));
#91=EDGE_LOOP('',(#113));
#92=EDGE_LOOP('',(#114));
#93=EDGE_LOOP('',(#115));
#94=EDGE_LOOP('',(#116));
#95=EDGE_LOOP('',(#117));
#96=EDGE_LOOP('',(#118));
#97=EDGE_LOOP('',(#119));
#98=EDGE_LOOP('',(#120));
#99=EDGE_LOOP('',(#121));
#100=ORIENTED_EDGE('',*,*,#133,.T.);
#101=ORIENTED_EDGE('',*,*,#134,.T.);
#102=ORIENTED_EDGE('',*,*,#133,.F.);
#103=ORIENTED_EDGE('',*,*,#134,.F.);
#104=ORIENTED_EDGE('',*,*,#135,.F.);
#105=ORIENTED_EDGE('',*,*,#136,.F.);
#106=ORIENTED_EDGE('',*,*,#135,.T.);
#107=ORIENTED_EDGE('',*,*,#136,.T.);
#108=ORIENTED_EDGE('',*,*,#137,.F.);
#109=ORIENTED_EDGE('',*,*,#138,.F.);
#110=ORIENTED_EDGE('',*,*,#137,.T.);
#111=ORIENTED_EDGE('',*,*,#139,.F.);
#112=ORIENTED_EDGE('',*,*,#138,.T.);
#113=ORIENTED_EDGE('',*,*,#140,.F.);
#114=ORIENTED_EDGE('',*,*,#139,.T.);
#115=ORIENTED_EDGE('',*,*,#141,.T.);
#116=ORIENTED_EDGE('',*,*,#140,.T.);
#117=ORIENTED_EDGE('',*,*,#142,.T.);
#118=ORIENTED_EDGE('',*,*,#143,.T.);
#119=ORIENTED_EDGE('',*,*,#142,.F.);
#120=ORIENTED_EDGE('',*,*,#141,.F.);
#121=ORIENTED_EDGE('',*,*,#143,.F.);
#122=VERTEX_POINT('',#258);
#123=VERTEX_POINT('',#260);
#124=VERTEX_POINT('',#264);
#125=VERTEX_POINT('',#267);
#126=VERTEX_POINT('',#270);
#127=VERTEX_POINT('',#273);
#128=VERTEX_POINT('',#276);
#129=VERTEX_POINT('',#279);
#130=VERTEX_POINT('',#282);
#131=VERTEX_POINT('',#285);
#132=VERTEX_POINT('',#288);
#133=EDGE_CURVE('',#122,#122,#144,.T.);
#134=EDGE_CURVE('',#123,#123,#145,.T.);
#135=EDGE_CURVE('',#124,#124,#146,.T.);
#136=EDGE_CURVE('',#125,#125,#147,.T.);
#137=EDGE_CURVE('',#126,#126,#148,.T.);
#138=EDGE_CURVE('',#127,#127,#149,.T.);
#139=EDGE_CURVE('',#128,#128,#150,.T.);
#140=EDGE_CURVE('',#129,#129,#151,.T.);
#141=EDGE_CURVE('',#130,#130,#152,.T.);
#142=EDGE_CURVE('',#131,#131,#153,.T.);
#143=EDGE_CURVE('',#132,#132,#154,.T.);
#144=CIRCLE('',#176,15.1551248688866);
#145=CIRCLE('',#177,20.06);
#146=CIRCLE('',#180,18.1);
#147=CIRCLE('',#182,18.1);
#148=CIRCLE('',#184,20.0547005383792);
#149=CIRCLE('',#186,20.1580127018922);
#150=CIRCLE('',#188,20.1580127018922);
#151=CIRCLE('',#190,16.5085481156726);
#152=CIRCLE('',#192,14.7);
#153=CIRCLE('',#194,7.7);
#154=CIRCLE('',#196,7.7);
#155=PRESENTATION_LAYER_ASSIGNMENT('1','Layer 1',(#173,#174,#175,#30));
#156=STYLED_ITEM('',(#160),#173);
#157=STYLED_ITEM('',(#161),#174);
#158=STYLED_ITEM('',(#162),#175);
#159=STYLED_ITEM('',(#163),#30);
#160=PRESENTATION_STYLE_ASSIGNMENT((#164));
#161=PRESENTATION_STYLE_ASSIGNMENT((#165));
#162=PRESENTATION_STYLE_ASSIGNMENT((#166));
#163=PRESENTATION_STYLE_ASSIGNMENT((#25));
#164=CURVE_STYLE('',#169,POSITIVE_LENGTH_MEASURE(0.13),#167);
#165=CURVE_STYLE('',#170,POSITIVE_LENGTH_MEASURE(0.13),#167);
#166=CURVE_STYLE('',#171,POSITIVE_LENGTH_MEASURE(0.13),#167);
#167=COLOUR_RGB('Strong Emerald',0.,0.803921568627451,0.525490196078431);
#168=COLOUR_RGB('TLS_NOCUT',0.499992370489052,0.499992370489052,0.499992370489052);
#169=DRAUGHTING_PRE_DEFINED_CURVE_FONT('continuous');
#170=DRAUGHTING_PRE_DEFINED_CURVE_FONT('continuous');
#171=DRAUGHTING_PRE_DEFINED_CURVE_FONT('continuous');
#172=AXIS2_PLACEMENT_3D('',#253,#199,#200);
#173=AXIS2_PLACEMENT_3D('MCS',#254,#201,#202);
#174=AXIS2_PLACEMENT_3D('PCS',#255,#203,#204);
#175=AXIS2_PLACEMENT_3D('CSW',#256,#205,#206);
#176=AXIS2_PLACEMENT_3D('',#257,#207,#208);
#177=AXIS2_PLACEMENT_3D('',#259,#209,#210);
#178=AXIS2_PLACEMENT_3D('',#261,#211,#212);
#179=AXIS2_PLACEMENT_3D('',#262,#213,#214);
#180=AXIS2_PLACEMENT_3D('',#263,#215,#216);
#181=AXIS2_PLACEMENT_3D('',#265,#217,#218);
#182=AXIS2_PLACEMENT_3D('',#266,#219,#220);
#183=AXIS2_PLACEMENT_3D('',#268,#221,#222);
#184=AXIS2_PLACEMENT_3D('',#269,#223,#224);
#185=AXIS2_PLACEMENT_3D('',#271,#225,#226);
#186=AXIS2_PLACEMENT_3D('',#272,#227,#228);
#187=AXIS2_PLACEMENT_3D('',#274,#229,#230);
#188=AXIS2_PLACEMENT_3D('',#275,#231,#232);
#189=AXIS2_PLACEMENT_3D('',#277,#233,#234);
#190=AXIS2_PLACEMENT_3D('',#278,#235,#236);
#191=AXIS2_PLACEMENT_3D('',#280,#237,#238);
#192=AXIS2_PLACEMENT_3D('',#281,#239,#240);
#193=AXIS2_PLACEMENT_3D('',#283,#241,#242);
#194=AXIS2_PLACEMENT_3D('',#284,#243,#244);
#195=AXIS2_PLACEMENT_3D('',#286,#245,#246);
#196=AXIS2_PLACEMENT_3D('',#287,#247,#248);
#197=AXIS2_PLACEMENT_3D('',#289,#249,#250);
#198=AXIS2_PLACEMENT_3D('',#290,#251,#252);
#199=DIRECTION('',(0.,0.,1.));
#200=DIRECTION('',(1.,0.,0.));
#201=DIRECTION('',(0.,0.,1.));
#202=DIRECTION('',(1.,0.,0.));
#203=DIRECTION('',(0.,0.,1.));
#204=DIRECTION('',(1.,0.,0.));
#205=DIRECTION('',(0.,0.,1.));
#206=DIRECTION('',(1.,0.,0.));
#207=DIRECTION('',(0.,-6.92191669083287E-017,-1.));
#208=DIRECTION('',(0.,1.,0.));
#209=DIRECTION('',(0.,6.92191669083287E-017,1.));
#210=DIRECTION('',(0.,-1.,6.92191669083287E-017));
#211=DIRECTION('',(0.,-6.92191669083287E-017,-1.));
#212=DIRECTION('',(0.,1.,2.67401694546759E-016));
#213=DIRECTION('',(0.,-6.92191669083287E-017,-1.));
#214=DIRECTION('',(0.,1.,-6.93889390390723E-017));
#215=DIRECTION('',(0.,-6.92191669083287E-017,-1.));
#216=DIRECTION('',(0.,-1.,6.92191669083287E-017));
#217=DIRECTION('',(0.,6.92191669083287E-017,1.));
#218=DIRECTION('',(0.,-1.,6.92191669083287E-017));
#219=DIRECTION('',(0.,-6.92191669083287E-017,-1.));
#220=DIRECTION('',(0.,1.,-4.7920538010409E-017));
#221=DIRECTION('',(0.,-6.92191669083287E-017,-1.));
#222=DIRECTION('',(0.,1.,0.));
#223=DIRECTION('',(0.,-6.92191669083287E-017,-1.));
#224=DIRECTION('',(0.,1.,-8.64995950778232E-017));
#225=DIRECTION('',(0.,-6.92191669083287E-017,-1.));
#226=DIRECTION('',(0.,1.,-6.93889390390723E-017));
#227=DIRECTION('',(0.,-6.92191669083287E-017,-1.));
#228=DIRECTION('',(0.,1.,-8.60562745758153E-017));
#229=DIRECTION('',(0.,-6.92191669083287E-017,-1.));
#230=DIRECTION('',(0.,1.,1.30669412500029E-017));
#231=DIRECTION('',(0.,-6.92191669083287E-017,-1.));
#232=DIRECTION('',(0.,1.,-8.60562745758153E-017));
#233=DIRECTION('',(0.,-6.92191669083287E-017,-1.));
#234=DIRECTION('',(0.,1.,-8.57712472670856E-017));
#235=DIRECTION('',(0.,-6.92191669083287E-017,-1.));
#236=DIRECTION('',(0.,-1.,1.05080317410222E-016));
#237=DIRECTION('',(0.,6.92191669083287E-017,1.));
#238=DIRECTION('',(0.,-1.,4.35489397021888E-017));
#239=DIRECTION('',(0.,6.92191669083287E-017,1.));
#240=DIRECTION('',(0.,-1.,1.18008399726313E-016));
#241=DIRECTION('',(0.,6.92191669083287E-017,1.));
#242=DIRECTION('',(0.,-1.,6.93889390390723E-017));
#243=DIRECTION('',(0.,-7.04171909509729E-017,-1.));
#244=DIRECTION('',(0.,1.,0.));
#245=DIRECTION('',(0.,-7.04171909509729E-017,-1.));
#246=DIRECTION('',(0.,1.,-6.93889390390723E-017));
#247=DIRECTION('',(0.,-6.92191669083287E-017,-1.));
#248=DIRECTION('',(0.,-1.,0.));
#249=DIRECTION('',(0.,-7.04171909509729E-017,-1.));
#250=DIRECTION('',(0.,1.,0.));
#251=DIRECTION('',(0.,6.92191669083287E-017,1.));
#252=DIRECTION('',(0.,-1.,0.));
#253=CARTESIAN_POINT('',(0.,0.,0.));
#254=CARTESIAN_POINT('',(0.,0.,0.));
#255=CARTESIAN_POINT('',(0.,0.,0.));
#256=CARTESIAN_POINT('',(0.,-2.28621579416215E-015,-33.1));
#257=CARTESIAN_POINT('',(0.,2.41574892510067E-015,34.9));
#258=CARTESIAN_POINT('',(0.,15.1551248688866,34.9));
#259=CARTESIAN_POINT('',(0.,0.,0.));
#260=CARTESIAN_POINT('',(0.,-20.06,1.38853648818107E-015));
#261=CARTESIAN_POINT('',(0.,2.41574892510067E-015,34.9));
#262=CARTESIAN_POINT('',(0.,2.78438092611805E-015,34.9));
#263=CARTESIAN_POINT('',(0.,0.,0.));
#264=CARTESIAN_POINT('',(0.,-18.1,1.25286692104075E-015));
#265=CARTESIAN_POINT('',(0.,20.06,1.7347234759768E-015));
#266=CARTESIAN_POINT('',(0.,-2.83798584324148E-016,-4.1));
#267=CARTESIAN_POINT('',(0.,18.1,-4.1));
#268=CARTESIAN_POINT('',(0.,2.41574892510067E-015,34.9));
#269=CARTESIAN_POINT('',(0.,-2.83798584324148E-016,-4.1));
#270=CARTESIAN_POINT('',(0.,20.0547005383792,-4.1));
#271=CARTESIAN_POINT('',(0.,18.1,-4.1));
#272=CARTESIAN_POINT('',(0.,-2.96184794691558E-016,-4.27894191624431));
#273=CARTESIAN_POINT('',(0.,20.1580127018922,-4.27894191624431));
#274=CARTESIAN_POINT('',(0.,-2.83798584324148E-016,-4.1));
#275=CARTESIAN_POINT('',(0.,-3.30794378145722E-016,-4.77894191624431));
#276=CARTESIAN_POINT('',(0.,20.1580127018922,-4.77894191624431));
#277=CARTESIAN_POINT('',(0.,-7.68332752682449E-016,-4.52894191624432));
#278=CARTESIAN_POINT('',(0.,-7.68332752682448E-016,-11.1));
#279=CARTESIAN_POINT('',(0.,-16.5085481156726,-11.1));
#280=CARTESIAN_POINT('',(0.,-3.30794378145722E-016,-4.77894191624431));
#281=CARTESIAN_POINT('',(0.,-7.76718920980958E-016,-11.1));
#282=CARTESIAN_POINT('',(0.,-14.7,-11.1));
#283=CARTESIAN_POINT('',(0.,16.5085481156726,-11.1));
#284=CARTESIAN_POINT('',(0.,-2.28621579416215E-015,-33.1));
#285=CARTESIAN_POINT('',(0.,7.7,-33.1));
#286=CARTESIAN_POINT('',(0.,-2.28621579416215E-015,-33.1));
#287=CARTESIAN_POINT('',(0.,-1.26125308933926E-015,-18.1));
#288=CARTESIAN_POINT('',(0.,-7.7,-18.1));
#289=CARTESIAN_POINT('',(0.,-7.68332752682449E-016,-11.1));
#290=CARTESIAN_POINT('',(0.,-1.26125308933926E-015,-18.1));
#291=MECHANICAL_DESIGN_GEOMETRIC_PRESENTATION_REPRESENTATION('',(#156,#157,
#158,#159),#292);
#292=(
GEOMETRIC_REPRESENTATION_CONTEXT(3)
GLOBAL_UNCERTAINTY_ASSIGNED_CONTEXT((#293))
GLOBAL_UNIT_ASSIGNED_CONTEXT((#299,#295,#294))
REPRESENTATION_CONTEXT('1493897942130','TOP_LEVEL_ASSEMBLY_PART')
);
#293=UNCERTAINTY_MEASURE_WITH_UNIT(LENGTH_MEASURE(2.E-005),#299,
'DISTANCE_ACCURACY_VALUE','Maximum Tolerance applied to model');
#294=(
NAMED_UNIT(*)
SI_UNIT($,.STERADIAN.)
SOLID_ANGLE_UNIT()
);
#295=(
CONVERSION_BASED_UNIT('DEGREE',#297)
NAMED_UNIT(#296)
PLANE_ANGLE_UNIT()
);
#296=DIMENSIONAL_EXPONENTS(0.,0.,0.,0.,0.,0.,0.);
#297=PLANE_ANGLE_MEASURE_WITH_UNIT(PLANE_ANGLE_MEASURE(0.0174532925),#298);
#298=(
NAMED_UNIT(*)
PLANE_ANGLE_UNIT()
SI_UNIT($,.RADIAN.)
);
#299=(
LENGTH_UNIT()
NAMED_UNIT(*)
SI_UNIT(.MILLI.,.METRE.)
);
ENDSEC;
END-ISO-10303-21;
