ISO-10303-21;
HEADER;
/* Generated by software containing ST-Developer
 * from STEP Tools, Inc. (www.steptools.com) 
 */
/* OPTION: using custom schema-name function */

FILE_DESCRIPTION(
/* description */ (''),
/* implementation_level */ '2;1');

FILE_NAME(
/* name */ '1493895649009.stp',
/* time_stamp */ '2017-05-04T13:00:54+02:00',
/* author */ (''),
/* organization */ ('SMS'),
/* preprocessor_version */ 'ST-DEVELOPER v15',
/* originating_system */ 'SIEMENS PLM Software NX 8.5',
/* authorisation */ '');

FILE_SCHEMA (('AUTOMOTIVE_DESIGN { 1 0 10303 214 3 1 1 1 }'));
ENDSEC;

DATA;
#10=CONSTRUCTIVE_GEOMETRY_REPRESENTATION_RELATIONSHIP(
'supplemental geometry','',#24,#11);
#11=CONSTRUCTIVE_GEOMETRY_REPRESENTATION('supplemental geometry',(#140,
#141,#142),#232);
#12=SHAPE_REPRESENTATION_RELATIONSHIP('None',
'relationship between 200924831MOD000_01-None and 200924831MOD000_01-N
one',#24,#13);
#13=ADVANCED_BREP_SHAPE_REPRESENTATION('200924831MOD000_01-None',(#30),
#232);
#14=SHAPE_DEFINITION_REPRESENTATION(#15,#24);
#15=PRODUCT_DEFINITION_SHAPE('','',#16);
#16=PRODUCT_DEFINITION(' ','',#18,#17);
#17=PRODUCT_DEFINITION_CONTEXT('part definition',#23,'design');
#18=PRODUCT_DEFINITION_FORMATION_WITH_SPECIFIED_SOURCE(' ',' ',#20,
 .NOT_KNOWN.);
#19=PRODUCT_RELATED_PRODUCT_CATEGORY('part','',(#20));
#20=PRODUCT('200924831MOD000_01','200924831MOD000_01',' ',(#21));
#21=PRODUCT_CONTEXT(' ',#23,'mechanical');
#22=APPLICATION_PROTOCOL_DEFINITION('international standard',
'automotive_design',2010,#23);
#23=APPLICATION_CONTEXT(
'core data for automotive mechanical design processes');
#24=SHAPE_REPRESENTATION('200924831MOD000_01-None',(#139),#232);
#25=SURFACE_STYLE_USAGE(.BOTH.,#26);
#26=SURFACE_SIDE_STYLE('',(#27));
#27=SURFACE_STYLE_FILL_AREA(#28);
#28=FILL_AREA_STYLE('',(#29));
#29=FILL_AREA_STYLE_COLOUR('',#135);
#30=MANIFOLD_SOLID_BREP('',#31);
#31=CLOSED_SHELL('',(#50,#51,#52,#53,#54,#55,#56,#57,#58));
#32=CYLINDRICAL_SURFACE('',#150,6.9);
#33=CYLINDRICAL_SURFACE('',#159,4.8);
#34=CONICAL_SURFACE('',#146,5.07675063819026,8.);
#35=CONICAL_SURFACE('',#154,8.15801270189222,30.);
#36=FACE_BOUND('',#67,.T.);
#37=FACE_BOUND('',#68,.T.);
#38=FACE_BOUND('',#69,.T.);
#39=FACE_BOUND('',#70,.T.);
#40=FACE_BOUND('',#71,.T.);
#41=FACE_BOUND('',#72,.T.);
#42=FACE_BOUND('',#73,.T.);
#43=FACE_BOUND('',#74,.T.);
#44=FACE_BOUND('',#75,.T.);
#45=FACE_BOUND('',#76,.T.);
#46=FACE_BOUND('',#77,.T.);
#47=FACE_BOUND('',#78,.T.);
#48=FACE_BOUND('',#80,.T.);
#49=FACE_BOUND('',#81,.T.);
#50=ADVANCED_FACE('',(#64),#59,.F.);
#51=ADVANCED_FACE('',(#36,#37),#34,.T.);
#52=ADVANCED_FACE('',(#38,#39),#60,.F.);
#53=ADVANCED_FACE('',(#40,#41),#32,.T.);
#54=ADVANCED_FACE('',(#42,#43),#61,.F.);
#55=ADVANCED_FACE('',(#44,#45),#35,.T.);
#56=ADVANCED_FACE('',(#46,#47),#62,.F.);
#57=ADVANCED_FACE('',(#65),#63,.T.);
#58=ADVANCED_FACE('',(#48,#49),#33,.T.);
#59=PLANE('',#144);
#60=PLANE('',#148);
#61=PLANE('',#152);
#62=PLANE('',#156);
#63=PLANE('',#158);
#64=FACE_OUTER_BOUND('',#66,.T.);
#65=FACE_OUTER_BOUND('',#79,.T.);
#66=EDGE_LOOP('',(#82));
#67=EDGE_LOOP('',(#83));
#68=EDGE_LOOP('',(#84));
#69=EDGE_LOOP('',(#85));
#70=EDGE_LOOP('',(#86));
#71=EDGE_LOOP('',(#87));
#72=EDGE_LOOP('',(#88));
#73=EDGE_LOOP('',(#89));
#74=EDGE_LOOP('',(#90));
#75=EDGE_LOOP('',(#91));
#76=EDGE_LOOP('',(#92));
#77=EDGE_LOOP('',(#93));
#78=EDGE_LOOP('',(#94));
#79=EDGE_LOOP('',(#95));
#80=EDGE_LOOP('',(#96));
#81=EDGE_LOOP('',(#97));
#82=ORIENTED_EDGE('',*,*,#106,.F.);
#83=ORIENTED_EDGE('',*,*,#107,.T.);
#84=ORIENTED_EDGE('',*,*,#106,.T.);
#85=ORIENTED_EDGE('',*,*,#107,.F.);
#86=ORIENTED_EDGE('',*,*,#108,.F.);
#87=ORIENTED_EDGE('',*,*,#109,.F.);
#88=ORIENTED_EDGE('',*,*,#108,.T.);
#89=ORIENTED_EDGE('',*,*,#109,.T.);
#90=ORIENTED_EDGE('',*,*,#110,.F.);
#91=ORIENTED_EDGE('',*,*,#111,.F.);
#92=ORIENTED_EDGE('',*,*,#110,.T.);
#93=ORIENTED_EDGE('',*,*,#112,.F.);
#94=ORIENTED_EDGE('',*,*,#111,.T.);
#95=ORIENTED_EDGE('',*,*,#113,.T.);
#96=ORIENTED_EDGE('',*,*,#113,.F.);
#97=ORIENTED_EDGE('',*,*,#112,.T.);
#98=VERTEX_POINT('',#207);
#99=VERTEX_POINT('',#210);
#100=VERTEX_POINT('',#213);
#101=VERTEX_POINT('',#216);
#102=VERTEX_POINT('',#219);
#103=VERTEX_POINT('',#222);
#104=VERTEX_POINT('',#225);
#105=VERTEX_POINT('',#228);
#106=EDGE_CURVE('',#98,#98,#114,.T.);
#107=EDGE_CURVE('',#99,#99,#115,.T.);
#108=EDGE_CURVE('',#100,#100,#116,.T.);
#109=EDGE_CURVE('',#101,#101,#117,.T.);
#110=EDGE_CURVE('',#102,#102,#118,.T.);
#111=EDGE_CURVE('',#103,#103,#119,.T.);
#112=EDGE_CURVE('',#104,#104,#120,.T.);
#113=EDGE_CURVE('',#105,#105,#121,.T.);
#114=CIRCLE('',#143,5.07675063819026);
#115=CIRCLE('',#145,8.);
#116=CIRCLE('',#147,6.9);
#117=CIRCLE('',#149,6.9);
#118=CIRCLE('',#151,8.55);
#119=CIRCLE('',#153,6.24059892324149);
#120=CIRCLE('',#155,4.8);
#121=CIRCLE('',#157,4.8);
#122=PRESENTATION_LAYER_ASSIGNMENT('1','Layer 1',(#140,#141,#142,#30));
#123=STYLED_ITEM('',(#127),#140);
#124=STYLED_ITEM('',(#128),#141);
#125=STYLED_ITEM('',(#129),#142);
#126=STYLED_ITEM('',(#130),#30);
#127=PRESENTATION_STYLE_ASSIGNMENT((#131));
#128=PRESENTATION_STYLE_ASSIGNMENT((#132));
#129=PRESENTATION_STYLE_ASSIGNMENT((#133));
#130=PRESENTATION_STYLE_ASSIGNMENT((#25));
#131=CURVE_STYLE('',#136,POSITIVE_LENGTH_MEASURE(0.13),#134);
#132=CURVE_STYLE('',#137,POSITIVE_LENGTH_MEASURE(0.13),#134);
#133=CURVE_STYLE('',#138,POSITIVE_LENGTH_MEASURE(0.13),#134);
#134=COLOUR_RGB('Dark Cyan Teal',0.,0.8,0.6);
#135=COLOUR_RGB('TLS_NOCUT',0.499992370489052,0.499992370489052,0.499992370489052);
#136=DRAUGHTING_PRE_DEFINED_CURVE_FONT('continuous');
#137=DRAUGHTING_PRE_DEFINED_CURVE_FONT('continuous');
#138=DRAUGHTING_PRE_DEFINED_CURVE_FONT('continuous');
#139=AXIS2_PLACEMENT_3D('',#202,#160,#161);
#140=AXIS2_PLACEMENT_3D('PCS',#203,#162,#163);
#141=AXIS2_PLACEMENT_3D('MCS',#204,#164,#165);
#142=AXIS2_PLACEMENT_3D('CSW',#205,#166,#167);
#143=AXIS2_PLACEMENT_3D('',#206,#168,#169);
#144=AXIS2_PLACEMENT_3D('',#208,#170,#171);
#145=AXIS2_PLACEMENT_3D('',#209,#172,#173);
#146=AXIS2_PLACEMENT_3D('',#211,#174,#175);
#147=AXIS2_PLACEMENT_3D('',#212,#176,#177);
#148=AXIS2_PLACEMENT_3D('',#214,#178,#179);
#149=AXIS2_PLACEMENT_3D('',#215,#180,#181);
#150=AXIS2_PLACEMENT_3D('',#217,#182,#183);
#151=AXIS2_PLACEMENT_3D('',#218,#184,#185);
#152=AXIS2_PLACEMENT_3D('',#220,#186,#187);
#153=AXIS2_PLACEMENT_3D('',#221,#188,#189);
#154=AXIS2_PLACEMENT_3D('',#223,#190,#191);
#155=AXIS2_PLACEMENT_3D('',#224,#192,#193);
#156=AXIS2_PLACEMENT_3D('',#226,#194,#195);
#157=AXIS2_PLACEMENT_3D('',#227,#196,#197);
#158=AXIS2_PLACEMENT_3D('',#229,#198,#199);
#159=AXIS2_PLACEMENT_3D('',#230,#200,#201);
#160=DIRECTION('',(0.,0.,1.));
#161=DIRECTION('',(1.,0.,0.));
#162=DIRECTION('',(0.,0.,1.));
#163=DIRECTION('',(1.,0.,0.));
#164=DIRECTION('',(0.,0.,1.));
#165=DIRECTION('',(1.,0.,0.));
#166=DIRECTION('',(0.,0.,1.));
#167=DIRECTION('',(1.,0.,0.));
#168=DIRECTION('',(0.,-1.40947940059685E-017,-1.));
#169=DIRECTION('',(0.,1.,0.));
#170=DIRECTION('',(0.,-1.40947940059685E-017,-1.));
#171=DIRECTION('',(0.,1.,-1.38777878078145E-017));
#172=DIRECTION('',(0.,1.40947940059685E-017,1.));
#173=DIRECTION('',(0.,-1.,1.40947940059685E-017));
#174=DIRECTION('',(0.,-1.40947940059685E-017,-1.));
#175=DIRECTION('',(0.,1.,3.09734640015538E-016));
#176=DIRECTION('',(0.,-1.40947940059685E-017,-1.));
#177=DIRECTION('',(0.,-1.,1.40947940059685E-017));
#178=DIRECTION('',(0.,1.40947940059685E-017,1.));
#179=DIRECTION('',(0.,-1.,1.40947940059685E-017));
#180=DIRECTION('',(0.,-1.40947940059685E-017,-1.));
#181=DIRECTION('',(0.,1.,0.));
#182=DIRECTION('',(0.,-1.40947940059685E-017,-1.));
#183=DIRECTION('',(0.,1.,0.));
#184=DIRECTION('',(0.,-1.40947940059685E-017,-1.));
#185=DIRECTION('',(0.,1.,0.));
#186=DIRECTION('',(0.,-1.40947940059685E-017,-1.));
#187=DIRECTION('',(0.,1.,-1.43114686768087E-017));
#188=DIRECTION('',(0.,-1.40947940059685E-017,-1.));
#189=DIRECTION('',(0.,-1.,0.));
#190=DIRECTION('',(0.,1.40947940059685E-017,1.));
#191=DIRECTION('',(0.,-1.,-7.40691263312571E-018));
#192=DIRECTION('',(0.,-1.40947940059685E-017,-1.));
#193=DIRECTION('',(0.,1.,0.));
#194=DIRECTION('',(0.,1.40947940059685E-017,1.));
#195=DIRECTION('',(0.,-1.,1.38777878078145E-017));
#196=DIRECTION('',(0.,-1.40947940059685E-017,-1.));
#197=DIRECTION('',(0.,1.,0.));
#198=DIRECTION('',(0.,-1.40947940059685E-017,-1.));
#199=DIRECTION('',(0.,1.,-1.38777878078145E-017));
#200=DIRECTION('',(0.,-1.40947940059685E-017,-1.));
#201=DIRECTION('',(0.,1.,0.));
#202=CARTESIAN_POINT('',(0.,0.,0.));
#203=CARTESIAN_POINT('',(0.,0.,0.));
#204=CARTESIAN_POINT('',(0.,0.,0.));
#205=CARTESIAN_POINT('',(-4.33680868994202E-016,-9.44351198399894E-017,
-14.9));
#206=CARTESIAN_POINT('',(0.,2.93171715324145E-016,20.8));
#207=CARTESIAN_POINT('',(0.,5.07675063819026,20.8));
#208=CARTESIAN_POINT('',(0.,-9.44351198399894E-017,20.8));
#209=CARTESIAN_POINT('',(0.,-1.20370621524202E-032,-1.73472347597681E-015));
#210=CARTESIAN_POINT('',(0.,-8.,-1.62196512392906E-015));
#211=CARTESIAN_POINT('',(0.,2.93171715324145E-016,20.8));
#212=CARTESIAN_POINT('',(0.,-1.20370621524202E-032,-1.73472347597681E-015));
#213=CARTESIAN_POINT('',(0.,-6.9,-1.63746939733562E-015));
#214=CARTESIAN_POINT('',(0.,8.,-1.73472347597681E-015));
#215=CARTESIAN_POINT('',(0.,-3.80559438161151E-017,-2.7));
#216=CARTESIAN_POINT('',(0.,6.9,-2.7));
#217=CARTESIAN_POINT('',(0.,2.93171715324145E-016,20.8));
#218=CARTESIAN_POINT('',(0.,-3.80559438161152E-017,-2.7));
#219=CARTESIAN_POINT('',(0.,8.55,-2.7));
#220=CARTESIAN_POINT('',(0.,6.9,-2.7));
#221=CARTESIAN_POINT('',(0.,-9.44351198399894E-017,-6.7));
#222=CARTESIAN_POINT('',(0.,-6.24059892324149,-6.7));
#223=CARTESIAN_POINT('',(0.,-4.76254902675964E-017,-3.37894191624432));
#224=CARTESIAN_POINT('',(-4.33680868994202E-016,-9.44351198399894E-017,
-6.7));
#225=CARTESIAN_POINT('',(-4.33680868994202E-016,4.8,-6.7));
#226=CARTESIAN_POINT('',(0.,6.24059892324149,-6.7));
#227=CARTESIAN_POINT('',(-4.33680868994202E-016,-9.44351198399894E-017,
-14.9));
#228=CARTESIAN_POINT('',(-4.33680868994202E-016,4.8,-14.9));
#229=CARTESIAN_POINT('',(-4.33680868994202E-016,-9.44351198399894E-017,
-14.9));
#230=CARTESIAN_POINT('',(-4.33680868994202E-016,-9.44351198399894E-017,
-6.7));
#231=MECHANICAL_DESIGN_GEOMETRIC_PRESENTATION_REPRESENTATION('',(#123,#124,
#125,#126),#232);
#232=(
GEOMETRIC_REPRESENTATION_CONTEXT(3)
GLOBAL_UNCERTAINTY_ASSIGNED_CONTEXT((#233))
GLOBAL_UNIT_ASSIGNED_CONTEXT((#239,#235,#234))
REPRESENTATION_CONTEXT('1493895649009','TOP_LEVEL_ASSEMBLY_PART')
);
#233=UNCERTAINTY_MEASURE_WITH_UNIT(LENGTH_MEASURE(2.E-005),#239,
'DISTANCE_ACCURACY_VALUE','Maximum Tolerance applied to model');
#234=(
NAMED_UNIT(*)
SI_UNIT($,.STERADIAN.)
SOLID_ANGLE_UNIT()
);
#235=(
CONVERSION_BASED_UNIT('DEGREE',#237)
NAMED_UNIT(#236)
PLANE_ANGLE_UNIT()
);
#236=DIMENSIONAL_EXPONENTS(0.,0.,0.,0.,0.,0.,0.);
#237=PLANE_ANGLE_MEASURE_WITH_UNIT(PLANE_ANGLE_MEASURE(0.0174532925),#238);
#238=(
NAMED_UNIT(*)
PLANE_ANGLE_UNIT()
SI_UNIT($,.RADIAN.)
);
#239=(
LENGTH_UNIT()
NAMED_UNIT(*)
SI_UNIT(.MILLI.,.METRE.)
);
ENDSEC;
END-ISO-10303-21;
