ISO-10303-21;
HEADER;
FILE_DESCRIPTION(
/* description */ ('3-D model version:1'),
/* implementation_level */ '2;1');
FILE_NAME(
/* name */ 'EH20-A25-CE-150',
/* time_stamp */ '2016-12-02T14:01:35',
/* author */ ('InteractiveCad'),
/* organization */ ('AB Sandvik Coromant'),
/* preprocessor_version */ 'ST-DEVELOPER v11',
/* originating_system */ 'SIEMENS UGS NX 6.0',
/* authorization */ '');
FILE_SCHEMA(('AUTOMOTIVE_DESIGN'));
ENDSEC;
DATA;
#10=SHAPE_REPRESENTATION_RELATIONSHIP('None','relationship between EH20_A25_CE_150_635120807248036495_1_stp-None and EH20_A25_CE_150_635120807248036495_1_stp-None',
     #94,#11);
#11=ADVANCED_BREP_SHAPE_REPRESENTATION('EH20_A25_CE_150_635120807248036495_1_stp-None',
     (#104),#481);
#15=APPROVAL_PERSON_ORGANIZATION(#69,#24,#18);
#16=APPROVAL_PERSON_ORGANIZATION(#70,#25,#19);
#17=APPROVAL_PERSON_ORGANIZATION(#71,#26,#20);
#18=APPROVAL_ROLE('approver');
#19=APPROVAL_ROLE('approver');
#20=APPROVAL_ROLE('approver');
#21=APPROVAL_DATE_TIME(#39,#24);
#22=APPROVAL_DATE_TIME(#40,#25);
#23=APPROVAL_DATE_TIME(#41,#26);
#24=APPROVAL(#27,' ');
#25=APPROVAL(#28,' ');
#26=APPROVAL(#29,' ');
#27=APPROVAL_STATUS('not_yet_approved');
#28=APPROVAL_STATUS('not_yet_approved');
#29=APPROVAL_STATUS('not_yet_approved');
#31=SECURITY_CLASSIFICATION(' ',' ',#32);
#32=SECURITY_CLASSIFICATION_LEVEL('confidential');
#35=DATE_TIME_ROLE('creation_date');
#36=DATE_TIME_ROLE('classification_date');
#37=DATE_AND_TIME(#52,#42);
#38=DATE_AND_TIME(#53,#43);
#39=DATE_AND_TIME(#54,#44);
#40=DATE_AND_TIME(#55,#45);
#41=DATE_AND_TIME(#56,#46);
#42=LOCAL_TIME(0,0,0.0,#47);
#43=LOCAL_TIME(0,0,0.0,#48);
#44=LOCAL_TIME(0,0,0.0,#49);
#45=LOCAL_TIME(0,0,0.0,#50);
#46=LOCAL_TIME(0,0,0.0,#51);
#47=COORDINATED_UNIVERSAL_TIME_OFFSET(0,0,.BEHIND.);
#48=COORDINATED_UNIVERSAL_TIME_OFFSET(0,0,.BEHIND.);
#49=COORDINATED_UNIVERSAL_TIME_OFFSET(0,0,.BEHIND.);
#50=COORDINATED_UNIVERSAL_TIME_OFFSET(0,0,.BEHIND.);
#51=COORDINATED_UNIVERSAL_TIME_OFFSET(0,0,.BEHIND.);
#52=CALENDAR_DATE(0,1,1);
#53=CALENDAR_DATE(0,1,1);
#54=CALENDAR_DATE(0,1,1);
#55=CALENDAR_DATE(0,1,1);
#56=CALENDAR_DATE(0,1,1);
#61=PERSON_AND_ORGANIZATION_ROLE('creator');
#62=PERSON_AND_ORGANIZATION_ROLE('design_owner');
#63=PERSON_AND_ORGANIZATION_ROLE('design_supplier');
#64=PERSON_AND_ORGANIZATION_ROLE('classification_officer');
#65=PERSON_AND_ORGANIZATION(#79,#72);
#66=PERSON_AND_ORGANIZATION(#79,#73);
#67=PERSON_AND_ORGANIZATION(#79,#74);
#68=PERSON_AND_ORGANIZATION(#79,#75);
#69=PERSON_AND_ORGANIZATION(#79,#76);
#70=PERSON_AND_ORGANIZATION(#79,#77);
#71=PERSON_AND_ORGANIZATION(#79,#78);
#72=ORGANIZATION(' ',' ',' ');
#73=ORGANIZATION(' ',' ',' ');
#74=ORGANIZATION(' ',' ',' ');
#75=ORGANIZATION(' ',' ',' ');
#76=ORGANIZATION(' ',' ',' ');
#77=ORGANIZATION(' ',' ',' ');
#78=ORGANIZATION(' ',' ',' ');
#79=PERSON(' ',' ',' ',(' '),$,$);
#80=SHAPE_DEFINITION_REPRESENTATION(#81,#94);
#81=PRODUCT_DEFINITION_SHAPE('','',#82);
#82=PRODUCT_DEFINITION(' ','',#84,$);
#84=PRODUCT_DEFINITION_FORMATION_WITH_SPECIFIED_SOURCE(' ',' ',#86,.NOT_KNOWN.);
#85=PRODUCT_RELATED_PRODUCT_CATEGORY('detail','',(#86));
#86=PRODUCT('EH20_A25_CE_150_635120807248036495_1_stp','EH20_A25_CE_150_635120807248036495_1_stp',
     ' ',());
#87=PRODUCT_CATEGORY_RELATIONSHIP(' ',' ',#89,#90);
#88=PRODUCT_CATEGORY_RELATIONSHIP('','',#90,#85);
#89=PRODUCT_CATEGORY('part',' ');
#90=PRODUCT_CATEGORY(' ','');
#92=APPLICATION_PROTOCOL_DEFINITION('international standard','config_control_design',
     1994,#93);
#93=APPLICATION_CONTEXT('configuration controlled 3D designs of mechanical parts and assemblies');
#94=SHAPE_REPRESENTATION('EH20_A25_CE_150_635120807248036495_1_stp-None',(#309),
     #481);
#95=PRESENTATION_LAYER_ASSIGNMENT('1','Layer 1',(#104));
#96=STYLED_ITEM('',(#97),#104);
#97=PRESENTATION_STYLE_ASSIGNMENT((#98));
#98=SURFACE_STYLE_USAGE(.BOTH.,#99);
#99=SURFACE_SIDE_STYLE('',(#100));
#100=SURFACE_STYLE_FILL_AREA(#101);
#101=FILL_AREA_STYLE('',(#102));
#102=FILL_AREA_STYLE_COLOUR('',#103);
#103=COLOUR_RGB('TLS_NOCUT',0.499992370489052,0.499992370489052,0.499992370489052);
#104=MANIFOLD_SOLID_BREP('NOCUT',#105);
#105=CLOSED_SHELL('',(#124,#125,#126,#127,#128,#129,#130,#131,#132,#133,#134,#135,
     #136,#137,#138,#139,#140,#141,#142));
#106=TOROIDAL_SURFACE('',#325,5.025,0.4);
#107=TOROIDAL_SURFACE('',#329,5.32657930542099,1.3);
#108=TOROIDAL_SURFACE('',#333,5.68461794381033,0.4);
#109=TOROIDAL_SURFACE('',#339,6.85769807627063,0.5);
#110=TOROIDAL_SURFACE('',#343,6.85769807627063,0.500000000000001);
#111=VERTEX_LOOP('',#260);
#112=FACE_OUTER_BOUND('',#188,.T.);
#113=PLANE('',#316);
#114=PLANE('',#318);
#115=CONICAL_SURFACE('',#314,12.49675,5.00000000000002);
#116=CONICAL_SURFACE('',#319,11.49675,45.0);
#117=CONICAL_SURFACE('',#321,0.0,59.0);
#118=CONICAL_SURFACE('',#327,4.95554072893323,80.0000000000007);
#119=CONICAL_SURFACE('',#331,5.77120549174436,69.9999999999998);
#120=CONICAL_SURFACE('',#335,5.28680918566302,5.99999999999999);
#121=CONICAL_SURFACE('',#337,6.2153,70.0000000000001);
#122=CONICAL_SURFACE('',#345,7.25769807627063,2.0);
#123=CONICAL_SURFACE('',#346,7.32404753830495,46.9999999999999);
#124=ADVANCED_FACE('FP_EH_SU1',(#146,#147),#143,.T.);
#125=ADVANCED_FACE('FP_EH_SU3',(#148,#149),#115,.T.);
#126=ADVANCED_FACE('FP_EH_SU4',(#150,#151),#113,.T.);
#127=ADVANCED_FACE('',(#112),#114,.F.);
#128=ADVANCED_FACE('',(#152,#153),#116,.T.);
#129=ADVANCED_FACE('',(#154,#155),#117,.F.);
#130=ADVANCED_FACE('DCH3',(#156,#157),#144,.F.);
#131=ADVANCED_FACE('',(#158,#159),#106,.T.);
#132=ADVANCED_FACE('',(#160,#161),#118,.F.);
#133=ADVANCED_FACE('',(#162,#163),#107,.F.);
#134=ADVANCED_FACE('',(#164,#165),#119,.F.);
#135=ADVANCED_FACE('',(#166,#167),#108,.T.);
#136=ADVANCED_FACE('TSALN',(#168,#169),#120,.F.);
#137=ADVANCED_FACE('',(#170,#171),#121,.F.);
#138=ADVANCED_FACE('',(#172,#173),#109,.F.);
#139=ADVANCED_FACE('DCH2',(#174,#175),#145,.F.);
#140=ADVANCED_FACE('',(#176,#177),#110,.F.);
#141=ADVANCED_FACE('TSAN',(#178,#179),#122,.F.);
#142=ADVANCED_FACE('DCH4',(#180,#181),#123,.F.);
#143=CYLINDRICAL_SURFACE('',#312,12.49675);
#144=CYLINDRICAL_SURFACE('',#323,4.625);
#145=CYLINDRICAL_SURFACE('',#341,7.35769807627063);
#146=FACE_BOUND('',#182,.T.);
#147=FACE_BOUND('',#183,.T.);
#148=FACE_BOUND('',#184,.T.);
#149=FACE_BOUND('',#185,.T.);
#150=FACE_BOUND('',#186,.T.);
#151=FACE_BOUND('',#187,.T.);
#152=FACE_BOUND('',#189,.T.);
#153=FACE_BOUND('',#190,.T.);
#154=FACE_BOUND('',#191,.T.);
#155=FACE_BOUND('',#111,.T.);
#156=FACE_BOUND('',#192,.T.);
#157=FACE_BOUND('',#193,.T.);
#158=FACE_BOUND('',#194,.T.);
#159=FACE_BOUND('',#195,.T.);
#160=FACE_BOUND('',#196,.T.);
#161=FACE_BOUND('',#197,.T.);
#162=FACE_BOUND('',#198,.T.);
#163=FACE_BOUND('',#199,.T.);
#164=FACE_BOUND('',#200,.T.);
#165=FACE_BOUND('',#201,.T.);
#166=FACE_BOUND('',#202,.T.);
#167=FACE_BOUND('',#203,.T.);
#168=FACE_BOUND('',#204,.T.);
#169=FACE_BOUND('',#205,.T.);
#170=FACE_BOUND('',#206,.T.);
#171=FACE_BOUND('',#207,.T.);
#172=FACE_BOUND('',#208,.T.);
#173=FACE_BOUND('',#209,.T.);
#174=FACE_BOUND('',#210,.T.);
#175=FACE_BOUND('',#211,.T.);
#176=FACE_BOUND('',#212,.T.);
#177=FACE_BOUND('',#213,.T.);
#178=FACE_BOUND('',#214,.T.);
#179=FACE_BOUND('',#215,.T.);
#180=FACE_BOUND('',#216,.T.);
#181=FACE_BOUND('',#217,.T.);
#182=EDGE_LOOP('',(#218));
#183=EDGE_LOOP('',(#219));
#184=EDGE_LOOP('',(#220));
#185=EDGE_LOOP('',(#221));
#186=EDGE_LOOP('',(#222));
#187=EDGE_LOOP('',(#223));
#188=EDGE_LOOP('',(#224));
#189=EDGE_LOOP('',(#225));
#190=EDGE_LOOP('',(#226));
#191=EDGE_LOOP('',(#227));
#192=EDGE_LOOP('',(#228));
#193=EDGE_LOOP('',(#229));
#194=EDGE_LOOP('',(#230));
#195=EDGE_LOOP('',(#231));
#196=EDGE_LOOP('',(#232));
#197=EDGE_LOOP('',(#233));
#198=EDGE_LOOP('',(#234));
#199=EDGE_LOOP('',(#235));
#200=EDGE_LOOP('',(#236));
#201=EDGE_LOOP('',(#237));
#202=EDGE_LOOP('',(#238));
#203=EDGE_LOOP('',(#239));
#204=EDGE_LOOP('',(#240));
#205=EDGE_LOOP('',(#241));
#206=EDGE_LOOP('',(#242));
#207=EDGE_LOOP('',(#243));
#208=EDGE_LOOP('',(#244));
#209=EDGE_LOOP('',(#245));
#210=EDGE_LOOP('',(#246));
#211=EDGE_LOOP('',(#247));
#212=EDGE_LOOP('',(#248));
#213=EDGE_LOOP('',(#249));
#214=EDGE_LOOP('',(#250));
#215=EDGE_LOOP('',(#251));
#216=EDGE_LOOP('',(#252));
#217=EDGE_LOOP('',(#253));
#218=ORIENTED_EDGE('',*,*,#273,.T.);
#219=ORIENTED_EDGE('',*,*,#274,.T.);
#220=ORIENTED_EDGE('',*,*,#275,.T.);
#221=ORIENTED_EDGE('',*,*,#273,.F.);
#222=ORIENTED_EDGE('',*,*,#276,.F.);
#223=ORIENTED_EDGE('',*,*,#275,.F.);
#224=ORIENTED_EDGE('',*,*,#277,.F.);
#225=ORIENTED_EDGE('',*,*,#274,.F.);
#226=ORIENTED_EDGE('',*,*,#277,.T.);
#227=ORIENTED_EDGE('',*,*,#278,.T.);
#228=ORIENTED_EDGE('',*,*,#279,.T.);
#229=ORIENTED_EDGE('',*,*,#278,.F.);
#230=ORIENTED_EDGE('',*,*,#280,.T.);
#231=ORIENTED_EDGE('',*,*,#279,.F.);
#232=ORIENTED_EDGE('',*,*,#281,.T.);
#233=ORIENTED_EDGE('',*,*,#280,.F.);
#234=ORIENTED_EDGE('',*,*,#282,.T.);
#235=ORIENTED_EDGE('',*,*,#281,.F.);
#236=ORIENTED_EDGE('',*,*,#283,.T.);
#237=ORIENTED_EDGE('',*,*,#282,.F.);
#238=ORIENTED_EDGE('',*,*,#284,.T.);
#239=ORIENTED_EDGE('',*,*,#283,.F.);
#240=ORIENTED_EDGE('',*,*,#285,.T.);
#241=ORIENTED_EDGE('',*,*,#284,.F.);
#242=ORIENTED_EDGE('',*,*,#286,.T.);
#243=ORIENTED_EDGE('',*,*,#285,.F.);
#244=ORIENTED_EDGE('',*,*,#287,.T.);
#245=ORIENTED_EDGE('',*,*,#286,.F.);
#246=ORIENTED_EDGE('',*,*,#288,.T.);
#247=ORIENTED_EDGE('',*,*,#287,.F.);
#248=ORIENTED_EDGE('',*,*,#289,.T.);
#249=ORIENTED_EDGE('',*,*,#288,.F.);
#250=ORIENTED_EDGE('',*,*,#290,.T.);
#251=ORIENTED_EDGE('',*,*,#289,.F.);
#252=ORIENTED_EDGE('',*,*,#276,.T.);
#253=ORIENTED_EDGE('',*,*,#290,.F.);
#254=VERTEX_POINT('',#425);
#255=VERTEX_POINT('',#427);
#256=VERTEX_POINT('',#430);
#257=VERTEX_POINT('',#433);
#258=VERTEX_POINT('',#436);
#259=VERTEX_POINT('',#440);
#260=VERTEX_POINT('',#441);
#261=VERTEX_POINT('',#444);
#262=VERTEX_POINT('',#447);
#263=VERTEX_POINT('',#450);
#264=VERTEX_POINT('',#453);
#265=VERTEX_POINT('',#456);
#266=VERTEX_POINT('',#459);
#267=VERTEX_POINT('',#462);
#268=VERTEX_POINT('',#465);
#269=VERTEX_POINT('',#468);
#270=VERTEX_POINT('',#471);
#271=VERTEX_POINT('',#474);
#272=VERTEX_POINT('',#477);
#273=EDGE_CURVE('',#254,#254,#291,.T.);
#274=EDGE_CURVE('',#255,#255,#292,.T.);
#275=EDGE_CURVE('',#256,#256,#293,.T.);
#276=EDGE_CURVE('',#257,#257,#294,.T.);
#277=EDGE_CURVE('',#258,#258,#295,.T.);
#278=EDGE_CURVE('',#259,#259,#296,.T.);
#279=EDGE_CURVE('',#261,#261,#297,.T.);
#280=EDGE_CURVE('',#262,#262,#298,.T.);
#281=EDGE_CURVE('',#263,#263,#299,.T.);
#282=EDGE_CURVE('',#264,#264,#300,.T.);
#283=EDGE_CURVE('',#265,#265,#301,.T.);
#284=EDGE_CURVE('',#266,#266,#302,.T.);
#285=EDGE_CURVE('',#267,#267,#303,.T.);
#286=EDGE_CURVE('',#268,#268,#304,.T.);
#287=EDGE_CURVE('',#269,#269,#305,.T.);
#288=EDGE_CURVE('',#270,#270,#306,.T.);
#289=EDGE_CURVE('',#271,#271,#307,.T.);
#290=EDGE_CURVE('',#272,#272,#308,.T.);
#291=CIRCLE('',#310,12.49675);
#292=CIRCLE('',#311,12.49675);
#293=CIRCLE('',#313,9.59999999999998);
#294=CIRCLE('',#315,7.96746876431976);
#295=CIRCLE('',#317,11.49675);
#296=CIRCLE('',#320,4.625);
#297=CIRCLE('',#322,4.625);
#298=CIRCLE('',#324,4.95554072893323);
#299=CIRCLE('',#326,5.552321936388);
#300=CIRCLE('',#328,5.77120549174436);
#301=CIRCLE('',#330,5.54780988648006);
#302=CIRCLE('',#332,5.28680918566302);
#303=CIRCLE('',#334,6.2153);
#304=CIRCLE('',#336,7.02870814793346);
#305=CIRCLE('',#338,7.35769807627063);
#306=CIRCLE('',#340,7.35769807627063);
#307=CIRCLE('',#342,7.25769807627063);
#308=CIRCLE('',#344,7.32404753830495);
#309=AXIS2_PLACEMENT_3D('',#423,#347,#348);
#310=AXIS2_PLACEMENT_3D('',#424,#349,#350);
#311=AXIS2_PLACEMENT_3D('',#426,#351,#352);
#312=AXIS2_PLACEMENT_3D('',#428,#353,#354);
#313=AXIS2_PLACEMENT_3D('',#429,#355,#356);
#314=AXIS2_PLACEMENT_3D('',#431,#357,#358);
#315=AXIS2_PLACEMENT_3D('',#432,#359,#360);
#316=AXIS2_PLACEMENT_3D('',#434,#361,#362);
#317=AXIS2_PLACEMENT_3D('',#435,#363,#364);
#318=AXIS2_PLACEMENT_3D('',#437,#365,#366);
#319=AXIS2_PLACEMENT_3D('',#438,#367,#368);
#320=AXIS2_PLACEMENT_3D('',#439,#369,#370);
#321=AXIS2_PLACEMENT_3D('',#442,#371,#372);
#322=AXIS2_PLACEMENT_3D('',#443,#373,#374);
#323=AXIS2_PLACEMENT_3D('',#445,#375,#376);
#324=AXIS2_PLACEMENT_3D('',#446,#377,#378);
#325=AXIS2_PLACEMENT_3D('',#448,#379,#380);
#326=AXIS2_PLACEMENT_3D('',#449,#381,#382);
#327=AXIS2_PLACEMENT_3D('',#451,#383,#384);
#328=AXIS2_PLACEMENT_3D('',#452,#385,#386);
#329=AXIS2_PLACEMENT_3D('',#454,#387,#388);
#330=AXIS2_PLACEMENT_3D('',#455,#389,#390);
#331=AXIS2_PLACEMENT_3D('',#457,#391,#392);
#332=AXIS2_PLACEMENT_3D('',#458,#393,#394);
#333=AXIS2_PLACEMENT_3D('',#460,#395,#396);
#334=AXIS2_PLACEMENT_3D('',#461,#397,#398);
#335=AXIS2_PLACEMENT_3D('',#463,#399,#400);
#336=AXIS2_PLACEMENT_3D('',#464,#401,#402);
#337=AXIS2_PLACEMENT_3D('',#466,#403,#404);
#338=AXIS2_PLACEMENT_3D('',#467,#405,#406);
#339=AXIS2_PLACEMENT_3D('',#469,#407,#408);
#340=AXIS2_PLACEMENT_3D('',#470,#409,#410);
#341=AXIS2_PLACEMENT_3D('',#472,#411,#412);
#342=AXIS2_PLACEMENT_3D('',#473,#413,#414);
#343=AXIS2_PLACEMENT_3D('',#475,#415,#416);
#344=AXIS2_PLACEMENT_3D('',#476,#417,#418);
#345=AXIS2_PLACEMENT_3D('',#478,#419,#420);
#346=AXIS2_PLACEMENT_3D('',#479,#421,#422);
#347=DIRECTION('',(0.0,0.0,1.0));
#348=DIRECTION('',(1.0,0.0,0.0));
#349=DIRECTION('',(-3.18585737501132E-16,0.0,1.0));
#350=DIRECTION('',(-1.0,0.0,0.0));
#351=DIRECTION('',(0.0,0.0,-1.0));
#352=DIRECTION('',(1.0,0.0,0.0));
#353=DIRECTION('',(-3.18585737501132E-16,0.0,1.0));
#354=DIRECTION('',(1.0,0.0,5.55255878841077E-16));
#355=DIRECTION('',(-3.18585737501132E-16,0.0,1.0));
#356=DIRECTION('',(-1.0,0.0,0.0));
#357=DIRECTION('',(-3.18585737501132E-16,0.0,1.0));
#358=DIRECTION('',(1.0,0.0,-2.77596247660989E-16));
#359=DIRECTION('',(0.0,0.0,-1.0));
#360=DIRECTION('',(1.0,0.0,0.0));
#361=DIRECTION('',(3.18585737501132E-16,0.0,-1.0));
#362=DIRECTION('',(-1.0,0.0,-3.05311331771918E-16));
#363=DIRECTION('',(0.0,0.0,-1.0));
#364=DIRECTION('',(1.0,0.0,0.0));
#365=DIRECTION('',(0.0,0.0,-1.0));
#366=DIRECTION('',(-1.0,0.0,0.0));
#367=DIRECTION('',(0.0,0.0,-1.0));
#368=DIRECTION('',(-1.0,0.0,0.0));
#369=DIRECTION('',(0.0,0.0,-1.0));
#370=DIRECTION('',(1.0,0.0,0.0));
#371=DIRECTION('',(0.0,0.0,-1.0));
#372=DIRECTION('',(-1.0,0.0,0.0));
#373=DIRECTION('',(0.0,0.0,-1.0));
#374=DIRECTION('',(1.0,0.0,0.0));
#375=DIRECTION('',(0.0,0.0,-1.0));
#376=DIRECTION('',(-1.0,0.0,0.0));
#377=DIRECTION('',(0.0,0.0,-1.0));
#378=DIRECTION('',(1.0,0.0,0.0));
#379=DIRECTION('',(0.0,0.0,-1.0));
#380=DIRECTION('',(-1.0,0.0,0.0));
#381=DIRECTION('',(0.0,0.0,-1.0));
#382=DIRECTION('',(1.0,0.0,0.0));
#383=DIRECTION('',(0.0,0.0,-1.0));
#384=DIRECTION('',(-1.0,0.0,4.88978417455255E-18));
#385=DIRECTION('',(0.0,0.0,-1.0));
#386=DIRECTION('',(1.0,0.0,0.0));
#387=DIRECTION('',(0.0,0.0,-1.0));
#388=DIRECTION('',(-1.0,0.0,0.0));
#389=DIRECTION('',(0.0,0.0,-1.0));
#390=DIRECTION('',(1.0,0.0,0.0));
#391=DIRECTION('',(0.0,0.0,1.0));
#392=DIRECTION('',(1.0,0.0,-1.00810276864008E-17));
#393=DIRECTION('',(0.0,0.0,-1.0));
#394=DIRECTION('',(1.0,0.0,0.0));
#395=DIRECTION('',(0.0,0.0,-1.0));
#396=DIRECTION('',(-1.0,0.0,0.0));
#397=DIRECTION('',(0.0,0.0,-1.0));
#398=DIRECTION('',(1.0,0.0,0.0));
#399=DIRECTION('',(0.0,0.0,-1.0));
#400=DIRECTION('',(-1.0,0.0,-1.00571838063779E-15));
#401=DIRECTION('',(0.0,0.0,-1.0));
#402=DIRECTION('',(1.0,0.0,0.0));
#403=DIRECTION('',(0.0,0.0,-1.0));
#404=DIRECTION('',(-1.0,0.0,4.03176075813221E-17));
#405=DIRECTION('',(0.0,0.0,-1.0));
#406=DIRECTION('',(1.0,0.0,0.0));
#407=DIRECTION('',(0.0,0.0,-1.0));
#408=DIRECTION('',(-1.0,0.0,0.0));
#409=DIRECTION('',(0.0,0.0,-1.0));
#410=DIRECTION('',(1.0,0.0,0.0));
#411=DIRECTION('',(0.0,0.0,-1.0));
#412=DIRECTION('',(-1.0,0.0,0.0));
#413=DIRECTION('',(0.0,0.0,-1.0));
#414=DIRECTION('',(1.0,0.0,0.0));
#415=DIRECTION('',(0.0,0.0,-1.0));
#416=DIRECTION('',(-1.0,0.0,0.0));
#417=DIRECTION('',(0.0,0.0,-1.0));
#418=DIRECTION('',(1.0,0.0,0.0));
#419=DIRECTION('',(0.0,0.0,-1.0));
#420=DIRECTION('',(-1.0,0.0,6.58050830577696E-16));
#421=DIRECTION('',(0.0,0.0,-1.0));
#422=DIRECTION('',(-1.0,0.0,2.57069202522735E-17));
#423=CARTESIAN_POINT('',(0.0,0.0,0.0));
#424=CARTESIAN_POINT('',(8.54746097799096E-15,0.0,-116.889995991976));
#425=CARTESIAN_POINT('',(-12.49675,0.0,-116.889995991976));
#426=CARTESIAN_POINT('',(0.0,0.0,-1.0));
#427=CARTESIAN_POINT('',(12.49675,0.0,-1.0));
#428=CARTESIAN_POINT('',(-1.02140518265514E-14,0.0,-58.0));
#429=CARTESIAN_POINT('',(1.90958360235527E-14,0.0,-150.0));
#430=CARTESIAN_POINT('',(-9.59999999999996,0.0,-150.0));
#431=CARTESIAN_POINT('',(8.54746097799096E-15,0.0,-116.889995991976));
#432=CARTESIAN_POINT('',(0.0,0.0,-150.0));
#433=CARTESIAN_POINT('',(7.96746876431976,0.0,-150.0));
#434=CARTESIAN_POINT('',(9.6,0.0,-150.0));
#435=CARTESIAN_POINT('',(0.0,0.0,0.0));
#436=CARTESIAN_POINT('',(11.49675,0.0,0.0));
#437=CARTESIAN_POINT('',(0.0,0.0,0.0));
#438=CARTESIAN_POINT('',(0.0,0.0,0.0));
#439=CARTESIAN_POINT('',(0.0,0.0,-128.5));
#440=CARTESIAN_POINT('',(4.625,0.0,-128.5));
#441=CARTESIAN_POINT('',(0.0,0.0,-125.721019636998));
#442=CARTESIAN_POINT('',(0.0,0.0,-125.721019636998));
#443=CARTESIAN_POINT('',(0.0,0.0,-132.5));
#444=CARTESIAN_POINT('',(4.625,0.0,-132.5));
#445=CARTESIAN_POINT('',(0.0,0.0,-150.0));
#446=CARTESIAN_POINT('',(0.0,0.0,-132.893923101205));
#447=CARTESIAN_POINT('',(4.95554072893323,0.0,-132.893923101205));
#448=CARTESIAN_POINT('',(0.0,0.0,-132.5));
#449=CARTESIAN_POINT('',(0.0,0.0,-132.999151729659));
#450=CARTESIAN_POINT('',(5.552321936388,0.0,-132.999151729659));
#451=CARTESIAN_POINT('',(0.0,0.0,-132.893923101205));
#452=CARTESIAN_POINT('',(0.0,0.0,-135.501002215596));
#453=CARTESIAN_POINT('',(5.77120549174436,0.0,-135.501002215596));
#454=CARTESIAN_POINT('',(0.0,0.0,-134.279401808575));
#455=CARTESIAN_POINT('',(0.0,0.0,-135.582311566379));
#456=CARTESIAN_POINT('',(5.54780988648006,0.0,-135.582311566379));
#457=CARTESIAN_POINT('',(0.0,0.0,-135.501002215596));
#458=CARTESIAN_POINT('',(0.0,0.0,-136.0));
#459=CARTESIAN_POINT('',(5.28680918566302,0.0,-136.0));
#460=CARTESIAN_POINT('',(0.0,0.0,-135.958188614693));
#461=CARTESIAN_POINT('',(0.0,0.0,-144.834));
#462=CARTESIAN_POINT('',(6.2153,0.0,-144.834));
#463=CARTESIAN_POINT('',(0.0,0.0,-136.0));
#464=CARTESIAN_POINT('',(0.0,0.0,-145.130056354157));
#465=CARTESIAN_POINT('',(7.02870814793346,0.0,-145.130056354157));
#466=CARTESIAN_POINT('',(0.0,0.0,-144.834));
#467=CARTESIAN_POINT('',(0.0,0.0,-145.59990266455));
#468=CARTESIAN_POINT('',(7.35769807627063,0.0,-145.59990266455));
#469=CARTESIAN_POINT('',(0.0,0.0,-145.59990266455));
#470=CARTESIAN_POINT('',(0.0,0.0,-147.2));
#471=CARTESIAN_POINT('',(7.35769807627063,0.0,-147.2));
#472=CARTESIAN_POINT('',(0.0,0.0,-150.0));
#473=CARTESIAN_POINT('',(0.0,0.0,-147.5));
#474=CARTESIAN_POINT('',(7.25769807627063,0.0,-147.5));
#475=CARTESIAN_POINT('',(0.0,0.0,-147.2));
#476=CARTESIAN_POINT('',(0.0,0.0,-149.4));
#477=CARTESIAN_POINT('',(7.32404753830495,0.0,-149.4));
#478=CARTESIAN_POINT('',(0.0,0.0,-147.5));
#479=CARTESIAN_POINT('',(0.0,0.0,-149.4));
#480=MECHANICAL_DESIGN_GEOMETRIC_PRESENTATION_REPRESENTATION('',(#96),#481);
#481=(GEOMETRIC_REPRESENTATION_CONTEXT(3)GLOBAL_UNCERTAINTY_ASSIGNED_CONTEXT((#482))
     GLOBAL_UNIT_ASSIGNED_CONTEXT((#488,#484,#483))REPRESENTATION_CONTEXT('EH20_A25_CE_150_635120807248036495_1_stp',
     'TOP_LEVEL_ASSEMBLY_PART'));
#482=UNCERTAINTY_MEASURE_WITH_UNIT(LENGTH_MEASURE(2.0E-5),#488,'DISTANCE_ACCURACY_VALUE',
     'Maximum Tolerance applied to model');
#483=(NAMED_UNIT(*)SI_UNIT($,.STERADIAN.)SOLID_ANGLE_UNIT());
#484=(CONVERSION_BASED_UNIT('DEGREE',#486)NAMED_UNIT(*)PLANE_ANGLE_UNIT());
#485=DIMENSIONAL_EXPONENTS(0.0,0.0,0.0,0.0,0.0,0.0,0.0);
#486=PLANE_ANGLE_MEASURE_WITH_UNIT(PLANE_ANGLE_MEASURE(0.0174532925),#487);
#487=(NAMED_UNIT(*)PLANE_ANGLE_UNIT()SI_UNIT($,.RADIAN.));
#488=(LENGTH_UNIT()NAMED_UNIT(*)SI_UNIT(.MILLI.,.METRE.));
#489=CARTESIAN_POINT('',(0.0,0.0,0.0));
#490=DIRECTION('',(0.0,0.0,1.0));
#491=DIRECTION('',(1.0,0.0,0.0));
#492=AXIS2_PLACEMENT_3D('PCS',#489,#490,#491);
#493=CARTESIAN_POINT('',(0.0,0.0,-47.0));
#494=DIRECTION('',(0.0,0.0,1.0));
#495=DIRECTION('',(1.0,0.0,0.0));
#496=AXIS2_PLACEMENT_3D('MCS',#493,#494,#495);
#497=CARTESIAN_POINT('',(0.0,0.0,-150.0));
#498=DIRECTION('',(0.0,0.0,1.0));
#499=DIRECTION('',(1.0,0.0,0.0));
#500=AXIS2_PLACEMENT_3D('CSW',#497,#498,#499);
#501=CONSTRUCTIVE_GEOMETRY_REPRESENTATION('supplemental geometry',(#492,#496,#500),
     #481);
#502=CONSTRUCTIVE_GEOMETRY_REPRESENTATION_RELATIONSHIP('supplemental geometry',$,
     #94,#501);
ENDSEC;
END-ISO-10303-21;
