ISO-10303-21;
HEADER;
FILE_DESCRIPTION(
/* description */ ('3-D model version:1'),
/* implementation_level */ '2;1');
FILE_NAME(
/* name */ 'EH16-A20-CS-165',
/* time_stamp */ '2016-12-02T14:02:40',
/* author */ ('InteractiveCad'),
/* organization */ ('AB Sandvik Coromant'),
/* preprocessor_version */ 'ST-DEVELOPER v15',
/* originating_system */ 'SIEMENS PLM Software NX 8.5',
/* authorization */ '');
FILE_SCHEMA(('AUTOMOTIVE_DESIGN'));
ENDSEC;
DATA;
#10=SHAPE_REPRESENTATION_RELATIONSHIP('None','relationship between EH16-A20-CS-165-635461140496157096-1-None and EH16-A20-CS-165-635461140496157096-1-None',
     #92,#11);
#11=ADVANCED_BREP_SHAPE_REPRESENTATION('EH16-A20-CS-165-635461140496157096-1-None',
     (#102),#439);
#15=APPROVAL_PERSON_ORGANIZATION(#69,#24,#18);
#16=APPROVAL_PERSON_ORGANIZATION(#70,#25,#19);
#17=APPROVAL_PERSON_ORGANIZATION(#71,#26,#20);
#18=APPROVAL_ROLE('approver');
#19=APPROVAL_ROLE('approver');
#20=APPROVAL_ROLE('approver');
#21=APPROVAL_DATE_TIME(#39,#24);
#22=APPROVAL_DATE_TIME(#40,#25);
#23=APPROVAL_DATE_TIME(#41,#26);
#24=APPROVAL(#27,' ');
#25=APPROVAL(#28,' ');
#26=APPROVAL(#29,' ');
#27=APPROVAL_STATUS('not_yet_approved');
#28=APPROVAL_STATUS('not_yet_approved');
#29=APPROVAL_STATUS('not_yet_approved');
#31=SECURITY_CLASSIFICATION(' ',' ',#32);
#32=SECURITY_CLASSIFICATION_LEVEL('confidential');
#35=DATE_TIME_ROLE('creation_date');
#36=DATE_TIME_ROLE('classification_date');
#37=DATE_AND_TIME(#52,#42);
#38=DATE_AND_TIME(#53,#43);
#39=DATE_AND_TIME(#54,#44);
#40=DATE_AND_TIME(#55,#45);
#41=DATE_AND_TIME(#56,#46);
#42=LOCAL_TIME(0,0,0.0,#47);
#43=LOCAL_TIME(0,0,0.0,#48);
#44=LOCAL_TIME(0,0,0.0,#49);
#45=LOCAL_TIME(0,0,0.0,#50);
#46=LOCAL_TIME(0,0,0.0,#51);
#47=COORDINATED_UNIVERSAL_TIME_OFFSET(0,0,.BEHIND.);
#48=COORDINATED_UNIVERSAL_TIME_OFFSET(0,0,.BEHIND.);
#49=COORDINATED_UNIVERSAL_TIME_OFFSET(0,0,.BEHIND.);
#50=COORDINATED_UNIVERSAL_TIME_OFFSET(0,0,.BEHIND.);
#51=COORDINATED_UNIVERSAL_TIME_OFFSET(0,0,.BEHIND.);
#52=CALENDAR_DATE(0,1,1);
#53=CALENDAR_DATE(0,1,1);
#54=CALENDAR_DATE(0,1,1);
#55=CALENDAR_DATE(0,1,1);
#56=CALENDAR_DATE(0,1,1);
#61=PERSON_AND_ORGANIZATION_ROLE('creator');
#62=PERSON_AND_ORGANIZATION_ROLE('design_owner');
#63=PERSON_AND_ORGANIZATION_ROLE('design_supplier');
#64=PERSON_AND_ORGANIZATION_ROLE('classification_officer');
#65=PERSON_AND_ORGANIZATION(#79,#72);
#66=PERSON_AND_ORGANIZATION(#79,#73);
#67=PERSON_AND_ORGANIZATION(#79,#74);
#68=PERSON_AND_ORGANIZATION(#79,#75);
#69=PERSON_AND_ORGANIZATION(#79,#76);
#70=PERSON_AND_ORGANIZATION(#79,#77);
#71=PERSON_AND_ORGANIZATION(#79,#78);
#72=ORGANIZATION(' ',' ',' ');
#73=ORGANIZATION(' ',' ',' ');
#74=ORGANIZATION(' ',' ',' ');
#75=ORGANIZATION(' ',' ',' ');
#76=ORGANIZATION(' ',' ',' ');
#77=ORGANIZATION(' ',' ',' ');
#78=ORGANIZATION(' ',' ',' ');
#79=PERSON(' ',' ',' ',(' '),$,$);
#80=SHAPE_DEFINITION_REPRESENTATION(#81,#92);
#81=PRODUCT_DEFINITION_SHAPE('','',#82);
#82=PRODUCT_DEFINITION(' ','',#84,$);
#84=PRODUCT_DEFINITION_FORMATION_WITH_SPECIFIED_SOURCE(' ',' ',#86,.NOT_KNOWN.);
#85=PRODUCT_RELATED_PRODUCT_CATEGORY('detail','',(#86));
#86=PRODUCT('EH16-A20-CS-165-635461140496157096-1','EH16-A20-CS-165-635461140496157096-1',
     ' ',());
#87=PRODUCT_CATEGORY('part',' ');
#88=PRODUCT_CATEGORY(' ','');
#90=APPLICATION_PROTOCOL_DEFINITION('international standard','config_control_design',
     2010,#91);
#91=APPLICATION_CONTEXT('configuration controlled 3D designs of mechanical parts and assemblies');
#92=SHAPE_REPRESENTATION('EH16-A20-CS-165-635461140496157096-1-None',(#285),#439);
#93=PRESENTATION_LAYER_ASSIGNMENT('1','Layer 1',(#102));
#94=STYLED_ITEM('',(#95),#102);
#95=PRESENTATION_STYLE_ASSIGNMENT((#96));
#96=SURFACE_STYLE_USAGE(.BOTH.,#97);
#97=SURFACE_SIDE_STYLE('',(#98));
#98=SURFACE_STYLE_FILL_AREA(#99);
#99=FILL_AREA_STYLE('',(#100));
#100=FILL_AREA_STYLE_COLOUR('',#101);
#101=COLOUR_RGB('TLS_NOCUT',0.499992370489052,0.499992370489052,0.499992370489052);
#102=MANIFOLD_SOLID_BREP('NOCUT',#103);
#103=CLOSED_SHELL('',(#120,#121,#122,#123,#124,#125,#126,#127,#128,#129,#130,#131,
     #132,#133,#134,#135,#136));
#104=TOROIDAL_SURFACE('',#301,3.725,0.2);
#105=TOROIDAL_SURFACE('',#303,3.49542994468815,1.0);
#106=TOROIDAL_SURFACE('',#305,4.41485840804242,0.6);
#107=TOROIDAL_SURFACE('',#311,4.94317430711815,0.8);
#108=TOROIDAL_SURFACE('',#315,5.24317430711815,0.5);
#109=VERTEX_LOOP('',#241);
#110=FACE_OUTER_BOUND('',#178,.T.);
#111=PLANE('',#292);
#112=PLANE('',#294);
#113=CONICAL_SURFACE('',#290,9.99674999999998,5.00000000000001);
#114=CONICAL_SURFACE('',#295,8.99675000000001,45.0);
#115=CONICAL_SURFACE('',#297,3.525,59.0);
#116=CONICAL_SURFACE('',#307,4.68,5.99999999999999);
#117=CONICAL_SURFACE('',#309,5.2203190359301,69.7308316113804);
#118=CONICAL_SURFACE('',#317,5.69904753830495,1.99999999999998);
#119=CONICAL_SURFACE('',#318,6.34246876431976,47.0);
#120=ADVANCED_FACE('FP_EH_SU1',(#140,#141),#137,.T.);
#121=ADVANCED_FACE('FP_EH_SU3',(#142,#143),#113,.T.);
#122=ADVANCED_FACE('FP_EH_SU4',(#144,#145),#111,.T.);
#123=ADVANCED_FACE('',(#110),#112,.F.);
#124=ADVANCED_FACE('',(#146,#147),#114,.T.);
#125=ADVANCED_FACE('',(#148,#149),#115,.F.);
#126=ADVANCED_FACE('DCH3',(#150,#151),#138,.F.);
#127=ADVANCED_FACE('',(#152,#153),#104,.T.);
#128=ADVANCED_FACE('',(#154,#155),#105,.F.);
#129=ADVANCED_FACE('',(#156,#157),#106,.T.);
#130=ADVANCED_FACE('TSALN',(#158,#159),#116,.F.);
#131=ADVANCED_FACE('',(#160,#161),#117,.F.);
#132=ADVANCED_FACE('',(#162,#163),#107,.F.);
#133=ADVANCED_FACE('DCH2',(#164,#165),#139,.F.);
#134=ADVANCED_FACE('',(#166,#167),#108,.F.);
#135=ADVANCED_FACE('TSAN',(#168,#169),#118,.F.);
#136=ADVANCED_FACE('DCH4',(#170,#171),#119,.F.);
#137=CYLINDRICAL_SURFACE('',#288,9.99674999999999);
#138=CYLINDRICAL_SURFACE('',#299,3.525);
#139=CYLINDRICAL_SURFACE('',#313,5.74317430711815);
#140=FACE_BOUND('',#172,.T.);
#141=FACE_BOUND('',#173,.T.);
#142=FACE_BOUND('',#174,.T.);
#143=FACE_BOUND('',#175,.T.);
#144=FACE_BOUND('',#176,.T.);
#145=FACE_BOUND('',#177,.T.);
#146=FACE_BOUND('',#179,.T.);
#147=FACE_BOUND('',#180,.T.);
#148=FACE_BOUND('',#109,.T.);
#149=FACE_BOUND('',#181,.T.);
#150=FACE_BOUND('',#182,.T.);
#151=FACE_BOUND('',#183,.T.);
#152=FACE_BOUND('',#184,.T.);
#153=FACE_BOUND('',#185,.T.);
#154=FACE_BOUND('',#186,.T.);
#155=FACE_BOUND('',#187,.T.);
#156=FACE_BOUND('',#188,.T.);
#157=FACE_BOUND('',#189,.T.);
#158=FACE_BOUND('',#190,.T.);
#159=FACE_BOUND('',#191,.T.);
#160=FACE_BOUND('',#192,.T.);
#161=FACE_BOUND('',#193,.T.);
#162=FACE_BOUND('',#194,.T.);
#163=FACE_BOUND('',#195,.T.);
#164=FACE_BOUND('',#196,.T.);
#165=FACE_BOUND('',#197,.T.);
#166=FACE_BOUND('',#198,.T.);
#167=FACE_BOUND('',#199,.T.);
#168=FACE_BOUND('',#200,.T.);
#169=FACE_BOUND('',#201,.T.);
#170=FACE_BOUND('',#202,.T.);
#171=FACE_BOUND('',#203,.T.);
#172=EDGE_LOOP('',(#204));
#173=EDGE_LOOP('',(#205));
#174=EDGE_LOOP('',(#206));
#175=EDGE_LOOP('',(#207));
#176=EDGE_LOOP('',(#208));
#177=EDGE_LOOP('',(#209));
#178=EDGE_LOOP('',(#210));
#179=EDGE_LOOP('',(#211));
#180=EDGE_LOOP('',(#212));
#181=EDGE_LOOP('',(#213));
#182=EDGE_LOOP('',(#214));
#183=EDGE_LOOP('',(#215));
#184=EDGE_LOOP('',(#216));
#185=EDGE_LOOP('',(#217));
#186=EDGE_LOOP('',(#218));
#187=EDGE_LOOP('',(#219));
#188=EDGE_LOOP('',(#220));
#189=EDGE_LOOP('',(#221));
#190=EDGE_LOOP('',(#222));
#191=EDGE_LOOP('',(#223));
#192=EDGE_LOOP('',(#224));
#193=EDGE_LOOP('',(#225));
#194=EDGE_LOOP('',(#226));
#195=EDGE_LOOP('',(#227));
#196=EDGE_LOOP('',(#228));
#197=EDGE_LOOP('',(#229));
#198=EDGE_LOOP('',(#230));
#199=EDGE_LOOP('',(#231));
#200=EDGE_LOOP('',(#232));
#201=EDGE_LOOP('',(#233));
#202=EDGE_LOOP('',(#234));
#203=EDGE_LOOP('',(#235));
#204=ORIENTED_EDGE('',*,*,#253,.T.);
#205=ORIENTED_EDGE('',*,*,#254,.T.);
#206=ORIENTED_EDGE('',*,*,#255,.T.);
#207=ORIENTED_EDGE('',*,*,#253,.F.);
#208=ORIENTED_EDGE('',*,*,#256,.F.);
#209=ORIENTED_EDGE('',*,*,#255,.F.);
#210=ORIENTED_EDGE('',*,*,#257,.F.);
#211=ORIENTED_EDGE('',*,*,#254,.F.);
#212=ORIENTED_EDGE('',*,*,#257,.T.);
#213=ORIENTED_EDGE('',*,*,#258,.T.);
#214=ORIENTED_EDGE('',*,*,#258,.F.);
#215=ORIENTED_EDGE('',*,*,#259,.T.);
#216=ORIENTED_EDGE('',*,*,#259,.F.);
#217=ORIENTED_EDGE('',*,*,#260,.T.);
#218=ORIENTED_EDGE('',*,*,#260,.F.);
#219=ORIENTED_EDGE('',*,*,#261,.T.);
#220=ORIENTED_EDGE('',*,*,#261,.F.);
#221=ORIENTED_EDGE('',*,*,#262,.T.);
#222=ORIENTED_EDGE('',*,*,#262,.F.);
#223=ORIENTED_EDGE('',*,*,#263,.T.);
#224=ORIENTED_EDGE('',*,*,#263,.F.);
#225=ORIENTED_EDGE('',*,*,#264,.T.);
#226=ORIENTED_EDGE('',*,*,#264,.F.);
#227=ORIENTED_EDGE('',*,*,#265,.T.);
#228=ORIENTED_EDGE('',*,*,#265,.F.);
#229=ORIENTED_EDGE('',*,*,#266,.T.);
#230=ORIENTED_EDGE('',*,*,#266,.F.);
#231=ORIENTED_EDGE('',*,*,#267,.T.);
#232=ORIENTED_EDGE('',*,*,#267,.F.);
#233=ORIENTED_EDGE('',*,*,#268,.T.);
#234=ORIENTED_EDGE('',*,*,#268,.F.);
#235=ORIENTED_EDGE('',*,*,#256,.T.);
#236=VERTEX_POINT('',#389);
#237=VERTEX_POINT('',#391);
#238=VERTEX_POINT('',#394);
#239=VERTEX_POINT('',#397);
#240=VERTEX_POINT('',#400);
#241=VERTEX_POINT('',#403);
#242=VERTEX_POINT('',#405);
#243=VERTEX_POINT('',#408);
#244=VERTEX_POINT('',#411);
#245=VERTEX_POINT('',#414);
#246=VERTEX_POINT('',#417);
#247=VERTEX_POINT('',#420);
#248=VERTEX_POINT('',#423);
#249=VERTEX_POINT('',#426);
#250=VERTEX_POINT('',#429);
#251=VERTEX_POINT('',#432);
#252=VERTEX_POINT('',#435);
#253=EDGE_CURVE('',#236,#236,#269,.T.);
#254=EDGE_CURVE('',#237,#237,#270,.T.);
#255=EDGE_CURVE('',#238,#238,#271,.T.);
#256=EDGE_CURVE('',#239,#239,#272,.T.);
#257=EDGE_CURVE('',#240,#240,#273,.T.);
#258=EDGE_CURVE('',#242,#242,#274,.T.);
#259=EDGE_CURVE('',#243,#243,#275,.T.);
#260=EDGE_CURVE('',#244,#244,#276,.T.);
#261=EDGE_CURVE('',#245,#245,#277,.T.);
#262=EDGE_CURVE('',#246,#246,#278,.T.);
#263=EDGE_CURVE('',#247,#247,#279,.T.);
#264=EDGE_CURVE('',#248,#248,#280,.T.);
#265=EDGE_CURVE('',#249,#249,#281,.T.);
#266=EDGE_CURVE('',#250,#250,#282,.T.);
#267=EDGE_CURVE('',#251,#251,#283,.T.);
#268=EDGE_CURVE('',#252,#252,#284,.T.);
#269=CIRCLE('',#286,9.99674999999998);
#270=CIRCLE('',#287,9.99675000000001);
#271=CIRCLE('',#289,7.69999999999998);
#272=CIRCLE('',#291,6.34246876431976);
#273=CIRCLE('',#293,8.99675000000001);
#274=CIRCLE('',#296,3.525);
#275=CIRCLE('',#298,3.525);
#276=CIRCLE('',#300,3.68673832411469);
#277=CIRCLE('',#302,4.07007273428457);
#278=CIRCLE('',#304,3.81814527082145);
#279=CIRCLE('',#306,4.68);
#280=CIRCLE('',#308,5.2203190359301);
#281=CIRCLE('',#310,5.74317430711815);
#282=CIRCLE('',#312,5.74317430711815);
#283=CIRCLE('',#314,5.64317430711816);
#284=CIRCLE('',#316,5.69904753830495);
#285=AXIS2_PLACEMENT_3D('',#387,#319,#320);
#286=AXIS2_PLACEMENT_3D('',#388,#321,#322);
#287=AXIS2_PLACEMENT_3D('',#390,#323,#324);
#288=AXIS2_PLACEMENT_3D('',#392,#325,#326);
#289=AXIS2_PLACEMENT_3D('',#393,#327,#328);
#290=AXIS2_PLACEMENT_3D('',#395,#329,#330);
#291=AXIS2_PLACEMENT_3D('',#396,#331,#332);
#292=AXIS2_PLACEMENT_3D('',#398,#333,#334);
#293=AXIS2_PLACEMENT_3D('',#399,#335,#336);
#294=AXIS2_PLACEMENT_3D('',#401,#337,#338);
#295=AXIS2_PLACEMENT_3D('',#402,#339,#340);
#296=AXIS2_PLACEMENT_3D('',#404,#341,#342);
#297=AXIS2_PLACEMENT_3D('',#406,#343,#344);
#298=AXIS2_PLACEMENT_3D('',#407,#345,#346);
#299=AXIS2_PLACEMENT_3D('',#409,#347,#348);
#300=AXIS2_PLACEMENT_3D('',#410,#349,#350);
#301=AXIS2_PLACEMENT_3D('',#412,#351,#352);
#302=AXIS2_PLACEMENT_3D('',#413,#353,#354);
#303=AXIS2_PLACEMENT_3D('',#415,#355,#356);
#304=AXIS2_PLACEMENT_3D('',#416,#357,#358);
#305=AXIS2_PLACEMENT_3D('',#418,#359,#360);
#306=AXIS2_PLACEMENT_3D('',#419,#361,#362);
#307=AXIS2_PLACEMENT_3D('',#421,#363,#364);
#308=AXIS2_PLACEMENT_3D('',#422,#365,#366);
#309=AXIS2_PLACEMENT_3D('',#424,#367,#368);
#310=AXIS2_PLACEMENT_3D('',#425,#369,#370);
#311=AXIS2_PLACEMENT_3D('',#427,#371,#372);
#312=AXIS2_PLACEMENT_3D('',#428,#373,#374);
#313=AXIS2_PLACEMENT_3D('',#430,#375,#376);
#314=AXIS2_PLACEMENT_3D('',#431,#377,#378);
#315=AXIS2_PLACEMENT_3D('',#433,#379,#380);
#316=AXIS2_PLACEMENT_3D('',#434,#381,#382);
#317=AXIS2_PLACEMENT_3D('',#436,#383,#384);
#318=AXIS2_PLACEMENT_3D('',#437,#385,#386);
#319=DIRECTION('',(0.0,0.0,1.0));
#320=DIRECTION('',(1.0,0.0,0.0));
#321=DIRECTION('',(-2.47927104885618E-16,0.0,1.0));
#322=DIRECTION('',(-1.0,0.0,0.0));
#323=DIRECTION('',(0.0,0.0,-1.0));
#324=DIRECTION('',(1.0,0.0,0.0));
#325=DIRECTION('',(-2.47927104885618E-16,0.0,1.0));
#326=DIRECTION('',(1.0,0.0,2.60293116659436E-16));
#327=DIRECTION('',(-2.47927104885618E-16,0.0,1.0));
#328=DIRECTION('',(-1.0,0.0,0.0));
#329=DIRECTION('',(-2.47927104885618E-16,0.0,1.0));
#330=DIRECTION('',(1.0,0.0,0.0));
#331=DIRECTION('',(0.0,0.0,-1.0));
#332=DIRECTION('',(1.0,0.0,0.0));
#333=DIRECTION('',(2.47927104885618E-16,0.0,-1.0));
#334=DIRECTION('',(-1.0,0.0,-2.4980018054066E-16));
#335=DIRECTION('',(0.0,0.0,-1.0));
#336=DIRECTION('',(1.0,0.0,0.0));
#337=DIRECTION('',(0.0,0.0,-1.0));
#338=DIRECTION('',(-1.0,0.0,0.0));
#339=DIRECTION('',(0.0,0.0,-1.0));
#340=DIRECTION('',(-1.0,0.0,0.0));
#341=DIRECTION('',(0.0,0.0,-1.0));
#342=DIRECTION('',(1.0,0.0,0.0));
#343=DIRECTION('',(0.0,0.0,-1.0));
#344=DIRECTION('',(-1.0,0.0,-4.99259521892727E-17));
#345=DIRECTION('',(0.0,0.0,-1.0));
#346=DIRECTION('',(1.0,0.0,0.0));
#347=DIRECTION('',(0.0,0.0,-1.0));
#348=DIRECTION('',(-1.0,0.0,0.0));
#349=DIRECTION('',(0.0,0.0,-1.0));
#350=DIRECTION('',(1.0,0.0,0.0));
#351=DIRECTION('',(0.0,0.0,-1.0));
#352=DIRECTION('',(-1.0,0.0,0.0));
#353=DIRECTION('',(0.0,0.0,-1.0));
#354=DIRECTION('',(1.0,0.0,0.0));
#355=DIRECTION('',(0.0,0.0,-1.0));
#356=DIRECTION('',(-1.0,0.0,0.0));
#357=DIRECTION('',(0.0,0.0,-1.0));
#358=DIRECTION('',(1.0,0.0,0.0));
#359=DIRECTION('',(0.0,0.0,-1.0));
#360=DIRECTION('',(-1.0,0.0,0.0));
#361=DIRECTION('',(0.0,0.0,-1.0));
#362=DIRECTION('',(1.0,0.0,0.0));
#363=DIRECTION('',(0.0,0.0,-1.0));
#364=DIRECTION('',(-1.0,0.0,-7.58457957514414E-16));
#365=DIRECTION('',(0.0,0.0,-1.0));
#366=DIRECTION('',(1.0,0.0,0.0));
#367=DIRECTION('',(0.0,0.0,-1.0));
#368=DIRECTION('',(-1.0,0.0,-2.04608008224681E-17));
#369=DIRECTION('',(0.0,0.0,-1.0));
#370=DIRECTION('',(1.0,0.0,0.0));
#371=DIRECTION('',(0.0,0.0,-1.0));
#372=DIRECTION('',(-1.0,0.0,0.0));
#373=DIRECTION('',(0.0,0.0,-1.0));
#374=DIRECTION('',(1.0,0.0,0.0));
#375=DIRECTION('',(0.0,0.0,-1.0));
#376=DIRECTION('',(-1.0,0.0,0.0));
#377=DIRECTION('',(0.0,0.0,-1.0));
#378=DIRECTION('',(1.0,0.0,0.0));
#379=DIRECTION('',(0.0,0.0,-1.0));
#380=DIRECTION('',(-1.0,0.0,0.0));
#381=DIRECTION('',(0.0,0.0,-1.0));
#382=DIRECTION('',(1.0,0.0,0.0));
#383=DIRECTION('',(0.0,0.0,-1.0));
#384=DIRECTION('',(-1.0,0.0,-2.04990403539441E-15));
#385=DIRECTION('',(0.0,0.0,-1.0));
#386=DIRECTION('',(-1.0,0.0,-2.57303123963064E-17));
#387=CARTESIAN_POINT('',(0.0,0.0,0.0));
#388=CARTESIAN_POINT('',(1.48077065020113E-14,0.0,-138.748027373633));
#389=CARTESIAN_POINT('',(-9.99674999999997,0.0,-138.748027373633));
#390=CARTESIAN_POINT('',(0.0,0.0,-1.0));
#391=CARTESIAN_POINT('',(9.99675000000001,0.0,-1.0));
#392=CARTESIAN_POINT('',(-1.90958360235527E-14,0.0,-2.0));
#393=CARTESIAN_POINT('',(2.1316282072803E-14,0.0,-165.0));
#394=CARTESIAN_POINT('',(-7.69999999999996,0.0,-165.0));
#395=CARTESIAN_POINT('',(1.48077065020113E-14,0.0,-138.748027373633));
#396=CARTESIAN_POINT('',(0.0,0.0,-165.0));
#397=CARTESIAN_POINT('',(6.34246876431976,0.0,-165.0));
#398=CARTESIAN_POINT('',(7.7,0.0,-165.0));
#399=CARTESIAN_POINT('',(0.0,0.0,0.0));
#400=CARTESIAN_POINT('',(8.99675000000001,0.0,0.0));
#401=CARTESIAN_POINT('',(0.0,0.0,0.0));
#402=CARTESIAN_POINT('',(0.0,0.0,0.0));
#403=CARTESIAN_POINT('',(0.0,0.0,-144.381966317928));
#404=CARTESIAN_POINT('',(0.0,0.0,-146.5));
#405=CARTESIAN_POINT('',(3.525,0.0,-146.5));
#406=CARTESIAN_POINT('',(0.0,0.0,-146.5));
#407=CARTESIAN_POINT('',(0.0,0.0,-149.85));
#408=CARTESIAN_POINT('',(3.525,0.0,-149.85));
#409=CARTESIAN_POINT('',(0.0,0.0,-165.0));
#410=CARTESIAN_POINT('',(0.0,0.0,-150.046305996237));
#411=CARTESIAN_POINT('',(3.68673832411469,0.0,-150.046305996237));
#412=CARTESIAN_POINT('',(0.0,0.0,-149.85));
#413=CARTESIAN_POINT('',(0.0,0.0,-151.846240317807));
#414=CARTESIAN_POINT('',(4.07007273428457,0.0,-151.846240317807));
#415=CARTESIAN_POINT('',(0.0,0.0,-151.02783597742));
#416=CARTESIAN_POINT('',(0.0,0.0,-152.4));
#417=CARTESIAN_POINT('',(3.81814527082145,0.0,-152.4));
#418=CARTESIAN_POINT('',(0.0,0.0,-152.337282922039));
#419=CARTESIAN_POINT('',(0.0,0.0,-160.6));
#420=CARTESIAN_POINT('',(4.68,0.0,-160.6));
#421=CARTESIAN_POINT('',(0.0,0.0,-160.6));
#422=CARTESIAN_POINT('',(0.0,0.0,-160.799539608446));
#423=CARTESIAN_POINT('',(5.2203190359301,0.0,-160.799539608446));
#424=CARTESIAN_POINT('',(0.0,0.0,-160.799539608446));
#425=CARTESIAN_POINT('',(0.0,0.0,-161.55));
#426=CARTESIAN_POINT('',(5.74317430711815,0.0,-161.55));
#427=CARTESIAN_POINT('',(0.0,0.0,-161.55));
#428=CARTESIAN_POINT('',(0.0,0.0,-162.5));
#429=CARTESIAN_POINT('',(5.74317430711815,0.0,-162.5));
#430=CARTESIAN_POINT('',(0.0,0.0,-165.0));
#431=CARTESIAN_POINT('',(0.0,0.0,-162.8));
#432=CARTESIAN_POINT('',(5.64317430711816,0.0,-162.8));
#433=CARTESIAN_POINT('',(0.0,0.0,-162.5));
#434=CARTESIAN_POINT('',(0.0,0.0,-164.4));
#435=CARTESIAN_POINT('',(5.69904753830495,0.0,-164.4));
#436=CARTESIAN_POINT('',(0.0,0.0,-164.4));
#437=CARTESIAN_POINT('',(0.0,0.0,-165.0));
#438=MECHANICAL_DESIGN_GEOMETRIC_PRESENTATION_REPRESENTATION('',(#94),#439);
#439=(GEOMETRIC_REPRESENTATION_CONTEXT(3)GLOBAL_UNCERTAINTY_ASSIGNED_CONTEXT((#440))
     GLOBAL_UNIT_ASSIGNED_CONTEXT((#446,#442,#441))REPRESENTATION_CONTEXT('EH16-A20-CS-165-635461140496157096-1',
     'TOP_LEVEL_ASSEMBLY_PART'));
#440=UNCERTAINTY_MEASURE_WITH_UNIT(LENGTH_MEASURE(2.0E-5),#446,'DISTANCE_ACCURACY_VALUE',
     'Maximum Tolerance applied to model');
#441=(NAMED_UNIT(*)SI_UNIT($,.STERADIAN.)SOLID_ANGLE_UNIT());
#442=(CONVERSION_BASED_UNIT('DEGREE',#444)NAMED_UNIT(*)PLANE_ANGLE_UNIT());
#443=DIMENSIONAL_EXPONENTS(0.0,0.0,0.0,0.0,0.0,0.0,0.0);
#444=PLANE_ANGLE_MEASURE_WITH_UNIT(PLANE_ANGLE_MEASURE(0.0174532925),#445);
#445=(NAMED_UNIT(*)PLANE_ANGLE_UNIT()SI_UNIT($,.RADIAN.));
#446=(LENGTH_UNIT()NAMED_UNIT(*)SI_UNIT(.MILLI.,.METRE.));
#447=CARTESIAN_POINT('',(0.0,0.0,0.0));
#448=DIRECTION('',(0.0,0.0,1.0));
#449=DIRECTION('',(1.0,0.0,0.0));
#450=AXIS2_PLACEMENT_3D('PCS',#447,#448,#449);
#451=CARTESIAN_POINT('',(0.0,0.0,-41.0));
#452=DIRECTION('',(0.0,0.0,1.0));
#453=DIRECTION('',(1.0,0.0,0.0));
#454=AXIS2_PLACEMENT_3D('MCS',#451,#452,#453);
#455=CARTESIAN_POINT('',(0.0,0.0,-165.0));
#456=DIRECTION('',(0.0,0.0,1.0));
#457=DIRECTION('',(1.0,0.0,0.0));
#458=AXIS2_PLACEMENT_3D('CSW',#455,#456,#457);
#459=CONSTRUCTIVE_GEOMETRY_REPRESENTATION('supplemental geometry',(#450,#454,#458),
     #439);
#460=CONSTRUCTIVE_GEOMETRY_REPRESENTATION_RELATIONSHIP('supplemental geometry',$,
     #92,#459);
ENDSEC;
END-ISO-10303-21;
