ISO-10303-21;
HEADER;
FILE_DESCRIPTION(
/* description */ ('3-D model version:1'),
/* implementation_level */ '2;1');
FILE_NAME(
/* name */ 'E16-A25-CS-170',
/* time_stamp */ '2016-12-02T13:55:35',
/* author */ ('InteractiveCad'),
/* organization */ ('AB Sandvik Coromant'),
/* preprocessor_version */ 'ST-DEVELOPER v11',
/* originating_system */ 'SIEMENS UGS NX 6.0',
/* authorization */ '');
FILE_SCHEMA(('AUTOMOTIVE_DESIGN'));
ENDSEC;
DATA;
#10=SHAPE_REPRESENTATION_RELATIONSHIP('None','relationship between E16_A25_CS_170_634382101138596336_1_stp-None and E16_A25_CS_170_634382101138596336_1_stp-None',
     #94,#11);
#11=ADVANCED_BREP_SHAPE_REPRESENTATION('E16_A25_CS_170_634382101138596336_1_stp-None',
     (#104),#441);
#15=APPROVAL_PERSON_ORGANIZATION(#69,#24,#18);
#16=APPROVAL_PERSON_ORGANIZATION(#70,#25,#19);
#17=APPROVAL_PERSON_ORGANIZATION(#71,#26,#20);
#18=APPROVAL_ROLE('approver');
#19=APPROVAL_ROLE('approver');
#20=APPROVAL_ROLE('approver');
#21=APPROVAL_DATE_TIME(#39,#24);
#22=APPROVAL_DATE_TIME(#40,#25);
#23=APPROVAL_DATE_TIME(#41,#26);
#24=APPROVAL(#27,' ');
#25=APPROVAL(#28,' ');
#26=APPROVAL(#29,' ');
#27=APPROVAL_STATUS('not_yet_approved');
#28=APPROVAL_STATUS('not_yet_approved');
#29=APPROVAL_STATUS('not_yet_approved');
#31=SECURITY_CLASSIFICATION(' ',' ',#32);
#32=SECURITY_CLASSIFICATION_LEVEL('confidential');
#35=DATE_TIME_ROLE('creation_date');
#36=DATE_TIME_ROLE('classification_date');
#37=DATE_AND_TIME(#52,#42);
#38=DATE_AND_TIME(#53,#43);
#39=DATE_AND_TIME(#54,#44);
#40=DATE_AND_TIME(#55,#45);
#41=DATE_AND_TIME(#56,#46);
#42=LOCAL_TIME(0,0,0.0,#47);
#43=LOCAL_TIME(0,0,0.0,#48);
#44=LOCAL_TIME(0,0,0.0,#49);
#45=LOCAL_TIME(0,0,0.0,#50);
#46=LOCAL_TIME(0,0,0.0,#51);
#47=COORDINATED_UNIVERSAL_TIME_OFFSET(0,0,.BEHIND.);
#48=COORDINATED_UNIVERSAL_TIME_OFFSET(0,0,.BEHIND.);
#49=COORDINATED_UNIVERSAL_TIME_OFFSET(0,0,.BEHIND.);
#50=COORDINATED_UNIVERSAL_TIME_OFFSET(0,0,.BEHIND.);
#51=COORDINATED_UNIVERSAL_TIME_OFFSET(0,0,.BEHIND.);
#52=CALENDAR_DATE(0,1,1);
#53=CALENDAR_DATE(0,1,1);
#54=CALENDAR_DATE(0,1,1);
#55=CALENDAR_DATE(0,1,1);
#56=CALENDAR_DATE(0,1,1);
#61=PERSON_AND_ORGANIZATION_ROLE('creator');
#62=PERSON_AND_ORGANIZATION_ROLE('design_owner');
#63=PERSON_AND_ORGANIZATION_ROLE('design_supplier');
#64=PERSON_AND_ORGANIZATION_ROLE('classification_officer');
#65=PERSON_AND_ORGANIZATION(#79,#72);
#66=PERSON_AND_ORGANIZATION(#79,#73);
#67=PERSON_AND_ORGANIZATION(#79,#74);
#68=PERSON_AND_ORGANIZATION(#79,#75);
#69=PERSON_AND_ORGANIZATION(#79,#76);
#70=PERSON_AND_ORGANIZATION(#79,#77);
#71=PERSON_AND_ORGANIZATION(#79,#78);
#72=ORGANIZATION(' ',' ',' ');
#73=ORGANIZATION(' ',' ',' ');
#74=ORGANIZATION(' ',' ',' ');
#75=ORGANIZATION(' ',' ',' ');
#76=ORGANIZATION(' ',' ',' ');
#77=ORGANIZATION(' ',' ',' ');
#78=ORGANIZATION(' ',' ',' ');
#79=PERSON(' ',' ',' ',(' '),$,$);
#80=SHAPE_DEFINITION_REPRESENTATION(#81,#94);
#81=PRODUCT_DEFINITION_SHAPE('','',#82);
#82=PRODUCT_DEFINITION(' ','',#84,$);
#84=PRODUCT_DEFINITION_FORMATION_WITH_SPECIFIED_SOURCE(' ',' ',#86,.NOT_KNOWN.);
#85=PRODUCT_RELATED_PRODUCT_CATEGORY('detail','',(#86));
#86=PRODUCT('E16_A25_CS_170_634382101138596336_1_stp','E16_A25_CS_170_634382101138596336_1_stp',
     ' ',());
#87=PRODUCT_CATEGORY_RELATIONSHIP(' ',' ',#89,#90);
#88=PRODUCT_CATEGORY_RELATIONSHIP('','',#90,#85);
#89=PRODUCT_CATEGORY('part',' ');
#90=PRODUCT_CATEGORY(' ','');
#92=APPLICATION_PROTOCOL_DEFINITION('international standard','config_control_design',
     1994,#93);
#93=APPLICATION_CONTEXT('configuration controlled 3D designs of mechanical parts and assemblies');
#94=SHAPE_REPRESENTATION('E16_A25_CS_170_634382101138596336_1_stp-None',(#287),#441);
#95=PRESENTATION_LAYER_ASSIGNMENT('1','Layer 1',(#104));
#96=STYLED_ITEM('',(#97),#104);
#97=PRESENTATION_STYLE_ASSIGNMENT((#98));
#98=SURFACE_STYLE_USAGE(.BOTH.,#99);
#99=SURFACE_SIDE_STYLE('',(#100));
#100=SURFACE_STYLE_FILL_AREA(#101);
#101=FILL_AREA_STYLE('',(#102));
#102=FILL_AREA_STYLE_COLOUR('',#103);
#103=COLOUR_RGB('TLS_NOCUT',0.499992370489052,0.499992370489052,0.499992370489052);
#104=MANIFOLD_SOLID_BREP('NOCUT',#105);
#105=CLOSED_SHELL('',(#122,#123,#124,#125,#126,#127,#128,#129,#130,#131,#132,#133,
     #134,#135,#136,#137,#138));
#106=TOROIDAL_SURFACE('',#303,3.725,0.2);
#107=TOROIDAL_SURFACE('',#305,3.49542994468815,1.0);
#108=TOROIDAL_SURFACE('',#307,4.41485840804242,0.6);
#109=TOROIDAL_SURFACE('',#313,4.94317430711815,0.8);
#110=TOROIDAL_SURFACE('',#317,5.24317430711815,0.5);
#111=VERTEX_LOOP('',#243);
#112=FACE_OUTER_BOUND('',#180,.T.);
#113=PLANE('',#294);
#114=PLANE('',#296);
#115=CONICAL_SURFACE('',#292,12.49675,5.00000000000001);
#116=CONICAL_SURFACE('',#297,11.49675,45.0);
#117=CONICAL_SURFACE('',#299,3.525,59.0);
#118=CONICAL_SURFACE('',#309,4.68,5.99999999999999);
#119=CONICAL_SURFACE('',#311,5.2203190359301,69.7308316113804);
#120=CONICAL_SURFACE('',#319,5.69904753830495,1.99999999999998);
#121=CONICAL_SURFACE('',#320,6.34246876431976,47.0);
#122=ADVANCED_FACE('FP_EH_SU1',(#142,#143),#139,.T.);
#123=ADVANCED_FACE('FP_EH_SU3',(#144,#145),#115,.T.);
#124=ADVANCED_FACE('FP_EH_SU4',(#146,#147),#113,.T.);
#125=ADVANCED_FACE('',(#112),#114,.F.);
#126=ADVANCED_FACE('',(#148,#149),#116,.T.);
#127=ADVANCED_FACE('',(#150,#151),#117,.F.);
#128=ADVANCED_FACE('DCH3',(#152,#153),#140,.F.);
#129=ADVANCED_FACE('',(#154,#155),#106,.T.);
#130=ADVANCED_FACE('',(#156,#157),#107,.F.);
#131=ADVANCED_FACE('',(#158,#159),#108,.T.);
#132=ADVANCED_FACE('TSALN',(#160,#161),#118,.F.);
#133=ADVANCED_FACE('',(#162,#163),#119,.F.);
#134=ADVANCED_FACE('',(#164,#165),#109,.F.);
#135=ADVANCED_FACE('DCH2',(#166,#167),#141,.F.);
#136=ADVANCED_FACE('',(#168,#169),#110,.F.);
#137=ADVANCED_FACE('TSAN',(#170,#171),#120,.F.);
#138=ADVANCED_FACE('DCH4',(#172,#173),#121,.F.);
#139=CYLINDRICAL_SURFACE('',#290,12.49675);
#140=CYLINDRICAL_SURFACE('',#301,3.525);
#141=CYLINDRICAL_SURFACE('',#315,5.74317430711815);
#142=FACE_BOUND('',#174,.T.);
#143=FACE_BOUND('',#175,.T.);
#144=FACE_BOUND('',#176,.T.);
#145=FACE_BOUND('',#177,.T.);
#146=FACE_BOUND('',#178,.T.);
#147=FACE_BOUND('',#179,.T.);
#148=FACE_BOUND('',#181,.T.);
#149=FACE_BOUND('',#182,.T.);
#150=FACE_BOUND('',#111,.T.);
#151=FACE_BOUND('',#183,.T.);
#152=FACE_BOUND('',#184,.T.);
#153=FACE_BOUND('',#185,.T.);
#154=FACE_BOUND('',#186,.T.);
#155=FACE_BOUND('',#187,.T.);
#156=FACE_BOUND('',#188,.T.);
#157=FACE_BOUND('',#189,.T.);
#158=FACE_BOUND('',#190,.T.);
#159=FACE_BOUND('',#191,.T.);
#160=FACE_BOUND('',#192,.T.);
#161=FACE_BOUND('',#193,.T.);
#162=FACE_BOUND('',#194,.T.);
#163=FACE_BOUND('',#195,.T.);
#164=FACE_BOUND('',#196,.T.);
#165=FACE_BOUND('',#197,.T.);
#166=FACE_BOUND('',#198,.T.);
#167=FACE_BOUND('',#199,.T.);
#168=FACE_BOUND('',#200,.T.);
#169=FACE_BOUND('',#201,.T.);
#170=FACE_BOUND('',#202,.T.);
#171=FACE_BOUND('',#203,.T.);
#172=FACE_BOUND('',#204,.T.);
#173=FACE_BOUND('',#205,.T.);
#174=EDGE_LOOP('',(#206));
#175=EDGE_LOOP('',(#207));
#176=EDGE_LOOP('',(#208));
#177=EDGE_LOOP('',(#209));
#178=EDGE_LOOP('',(#210));
#179=EDGE_LOOP('',(#211));
#180=EDGE_LOOP('',(#212));
#181=EDGE_LOOP('',(#213));
#182=EDGE_LOOP('',(#214));
#183=EDGE_LOOP('',(#215));
#184=EDGE_LOOP('',(#216));
#185=EDGE_LOOP('',(#217));
#186=EDGE_LOOP('',(#218));
#187=EDGE_LOOP('',(#219));
#188=EDGE_LOOP('',(#220));
#189=EDGE_LOOP('',(#221));
#190=EDGE_LOOP('',(#222));
#191=EDGE_LOOP('',(#223));
#192=EDGE_LOOP('',(#224));
#193=EDGE_LOOP('',(#225));
#194=EDGE_LOOP('',(#226));
#195=EDGE_LOOP('',(#227));
#196=EDGE_LOOP('',(#228));
#197=EDGE_LOOP('',(#229));
#198=EDGE_LOOP('',(#230));
#199=EDGE_LOOP('',(#231));
#200=EDGE_LOOP('',(#232));
#201=EDGE_LOOP('',(#233));
#202=EDGE_LOOP('',(#234));
#203=EDGE_LOOP('',(#235));
#204=EDGE_LOOP('',(#236));
#205=EDGE_LOOP('',(#237));
#206=ORIENTED_EDGE('',*,*,#255,.T.);
#207=ORIENTED_EDGE('',*,*,#256,.T.);
#208=ORIENTED_EDGE('',*,*,#257,.T.);
#209=ORIENTED_EDGE('',*,*,#255,.F.);
#210=ORIENTED_EDGE('',*,*,#258,.F.);
#211=ORIENTED_EDGE('',*,*,#257,.F.);
#212=ORIENTED_EDGE('',*,*,#259,.F.);
#213=ORIENTED_EDGE('',*,*,#256,.F.);
#214=ORIENTED_EDGE('',*,*,#259,.T.);
#215=ORIENTED_EDGE('',*,*,#260,.T.);
#216=ORIENTED_EDGE('',*,*,#260,.F.);
#217=ORIENTED_EDGE('',*,*,#261,.T.);
#218=ORIENTED_EDGE('',*,*,#261,.F.);
#219=ORIENTED_EDGE('',*,*,#262,.T.);
#220=ORIENTED_EDGE('',*,*,#262,.F.);
#221=ORIENTED_EDGE('',*,*,#263,.T.);
#222=ORIENTED_EDGE('',*,*,#263,.F.);
#223=ORIENTED_EDGE('',*,*,#264,.T.);
#224=ORIENTED_EDGE('',*,*,#264,.F.);
#225=ORIENTED_EDGE('',*,*,#265,.T.);
#226=ORIENTED_EDGE('',*,*,#265,.F.);
#227=ORIENTED_EDGE('',*,*,#266,.T.);
#228=ORIENTED_EDGE('',*,*,#266,.F.);
#229=ORIENTED_EDGE('',*,*,#267,.T.);
#230=ORIENTED_EDGE('',*,*,#267,.F.);
#231=ORIENTED_EDGE('',*,*,#268,.T.);
#232=ORIENTED_EDGE('',*,*,#268,.F.);
#233=ORIENTED_EDGE('',*,*,#269,.T.);
#234=ORIENTED_EDGE('',*,*,#269,.F.);
#235=ORIENTED_EDGE('',*,*,#270,.T.);
#236=ORIENTED_EDGE('',*,*,#270,.F.);
#237=ORIENTED_EDGE('',*,*,#258,.T.);
#238=VERTEX_POINT('',#391);
#239=VERTEX_POINT('',#393);
#240=VERTEX_POINT('',#396);
#241=VERTEX_POINT('',#399);
#242=VERTEX_POINT('',#402);
#243=VERTEX_POINT('',#405);
#244=VERTEX_POINT('',#407);
#245=VERTEX_POINT('',#410);
#246=VERTEX_POINT('',#413);
#247=VERTEX_POINT('',#416);
#248=VERTEX_POINT('',#419);
#249=VERTEX_POINT('',#422);
#250=VERTEX_POINT('',#425);
#251=VERTEX_POINT('',#428);
#252=VERTEX_POINT('',#431);
#253=VERTEX_POINT('',#434);
#254=VERTEX_POINT('',#437);
#255=EDGE_CURVE('',#238,#238,#271,.T.);
#256=EDGE_CURVE('',#239,#239,#272,.T.);
#257=EDGE_CURVE('',#240,#240,#273,.T.);
#258=EDGE_CURVE('',#241,#241,#274,.T.);
#259=EDGE_CURVE('',#242,#242,#275,.T.);
#260=EDGE_CURVE('',#244,#244,#276,.T.);
#261=EDGE_CURVE('',#245,#245,#277,.T.);
#262=EDGE_CURVE('',#246,#246,#278,.T.);
#263=EDGE_CURVE('',#247,#247,#279,.T.);
#264=EDGE_CURVE('',#248,#248,#280,.T.);
#265=EDGE_CURVE('',#249,#249,#281,.T.);
#266=EDGE_CURVE('',#250,#250,#282,.T.);
#267=EDGE_CURVE('',#251,#251,#283,.T.);
#268=EDGE_CURVE('',#252,#252,#284,.T.);
#269=EDGE_CURVE('',#253,#253,#285,.T.);
#270=EDGE_CURVE('',#254,#254,#286,.T.);
#271=CIRCLE('',#288,12.49675);
#272=CIRCLE('',#289,12.49675);
#273=CIRCLE('',#291,7.69999999999998);
#274=CIRCLE('',#293,6.34246876431976);
#275=CIRCLE('',#295,11.49675);
#276=CIRCLE('',#298,3.525);
#277=CIRCLE('',#300,3.525);
#278=CIRCLE('',#302,3.68673832411469);
#279=CIRCLE('',#304,4.07007273428457);
#280=CIRCLE('',#306,3.81814527082145);
#281=CIRCLE('',#308,4.68);
#282=CIRCLE('',#310,5.2203190359301);
#283=CIRCLE('',#312,5.74317430711815);
#284=CIRCLE('',#314,5.74317430711815);
#285=CIRCLE('',#316,5.64317430711816);
#286=CIRCLE('',#318,5.69904753830495);
#287=AXIS2_PLACEMENT_3D('',#389,#321,#322);
#288=AXIS2_PLACEMENT_3D('',#390,#323,#324);
#289=AXIS2_PLACEMENT_3D('',#392,#325,#326);
#290=AXIS2_PLACEMENT_3D('',#394,#327,#328);
#291=AXIS2_PLACEMENT_3D('',#395,#329,#330);
#292=AXIS2_PLACEMENT_3D('',#397,#331,#332);
#293=AXIS2_PLACEMENT_3D('',#398,#333,#334);
#294=AXIS2_PLACEMENT_3D('',#400,#335,#336);
#295=AXIS2_PLACEMENT_3D('',#401,#337,#338);
#296=AXIS2_PLACEMENT_3D('',#403,#339,#340);
#297=AXIS2_PLACEMENT_3D('',#404,#341,#342);
#298=AXIS2_PLACEMENT_3D('',#406,#343,#344);
#299=AXIS2_PLACEMENT_3D('',#408,#345,#346);
#300=AXIS2_PLACEMENT_3D('',#409,#347,#348);
#301=AXIS2_PLACEMENT_3D('',#411,#349,#350);
#302=AXIS2_PLACEMENT_3D('',#412,#351,#352);
#303=AXIS2_PLACEMENT_3D('',#414,#353,#354);
#304=AXIS2_PLACEMENT_3D('',#415,#355,#356);
#305=AXIS2_PLACEMENT_3D('',#417,#357,#358);
#306=AXIS2_PLACEMENT_3D('',#418,#359,#360);
#307=AXIS2_PLACEMENT_3D('',#420,#361,#362);
#308=AXIS2_PLACEMENT_3D('',#421,#363,#364);
#309=AXIS2_PLACEMENT_3D('',#423,#365,#366);
#310=AXIS2_PLACEMENT_3D('',#424,#367,#368);
#311=AXIS2_PLACEMENT_3D('',#426,#369,#370);
#312=AXIS2_PLACEMENT_3D('',#427,#371,#372);
#313=AXIS2_PLACEMENT_3D('',#429,#373,#374);
#314=AXIS2_PLACEMENT_3D('',#430,#375,#376);
#315=AXIS2_PLACEMENT_3D('',#432,#377,#378);
#316=AXIS2_PLACEMENT_3D('',#433,#379,#380);
#317=AXIS2_PLACEMENT_3D('',#435,#381,#382);
#318=AXIS2_PLACEMENT_3D('',#436,#383,#384);
#319=AXIS2_PLACEMENT_3D('',#438,#385,#386);
#320=AXIS2_PLACEMENT_3D('',#439,#387,#388);
#321=DIRECTION('',(0.0,0.0,1.0));
#322=DIRECTION('',(1.0,0.0,0.0));
#323=DIRECTION('',(-3.09276414002722E-16,0.0,1.0));
#324=DIRECTION('',(-1.0,0.0,0.0));
#325=DIRECTION('',(0.0,0.0,-1.0));
#326=DIRECTION('',(1.0,0.0,0.0));
#327=DIRECTION('',(-3.09276414002722E-16,0.0,1.0));
#328=DIRECTION('',(1.0,0.0,5.55255878841077E-16));
#329=DIRECTION('',(-3.09276414002722E-16,0.0,1.0));
#330=DIRECTION('',(-1.0,0.0,0.0));
#331=DIRECTION('',(-3.09276414002722E-16,0.0,1.0));
#332=DIRECTION('',(1.0,0.0,-2.7759624766099E-16));
#333=DIRECTION('',(0.0,0.0,-1.0));
#334=DIRECTION('',(1.0,0.0,0.0));
#335=DIRECTION('',(3.09276414002722E-16,0.0,-1.0));
#336=DIRECTION('',(-1.0,0.0,-3.05311331771918E-16));
#337=DIRECTION('',(0.0,0.0,-1.0));
#338=DIRECTION('',(1.0,0.0,0.0));
#339=DIRECTION('',(0.0,0.0,-1.0));
#340=DIRECTION('',(-1.0,0.0,0.0));
#341=DIRECTION('',(0.0,0.0,-1.0));
#342=DIRECTION('',(-1.0,0.0,0.0));
#343=DIRECTION('',(0.0,0.0,-1.0));
#344=DIRECTION('',(1.0,0.0,0.0));
#345=DIRECTION('',(0.0,0.0,-1.0));
#346=DIRECTION('',(-1.0,0.0,1.66419840630909E-17));
#347=DIRECTION('',(0.0,0.0,-1.0));
#348=DIRECTION('',(1.0,0.0,0.0));
#349=DIRECTION('',(0.0,0.0,-1.0));
#350=DIRECTION('',(-1.0,0.0,0.0));
#351=DIRECTION('',(0.0,0.0,-1.0));
#352=DIRECTION('',(1.0,0.0,0.0));
#353=DIRECTION('',(0.0,0.0,-1.0));
#354=DIRECTION('',(-1.0,0.0,0.0));
#355=DIRECTION('',(0.0,0.0,-1.0));
#356=DIRECTION('',(1.0,0.0,0.0));
#357=DIRECTION('',(0.0,0.0,-1.0));
#358=DIRECTION('',(-1.0,0.0,0.0));
#359=DIRECTION('',(0.0,0.0,-1.0));
#360=DIRECTION('',(1.0,0.0,0.0));
#361=DIRECTION('',(0.0,0.0,-1.0));
#362=DIRECTION('',(-1.0,0.0,0.0));
#363=DIRECTION('',(0.0,0.0,-1.0));
#364=DIRECTION('',(1.0,0.0,0.0));
#365=DIRECTION('',(0.0,0.0,-1.0));
#366=DIRECTION('',(-1.0,0.0,2.52819319171471E-16));
#367=DIRECTION('',(0.0,0.0,-1.0));
#368=DIRECTION('',(1.0,0.0,0.0));
#369=DIRECTION('',(0.0,0.0,-1.0));
#370=DIRECTION('',(-1.0,0.0,2.04608008224681E-17));
#371=DIRECTION('',(0.0,0.0,-1.0));
#372=DIRECTION('',(1.0,0.0,0.0));
#373=DIRECTION('',(0.0,0.0,-1.0));
#374=DIRECTION('',(-1.0,0.0,0.0));
#375=DIRECTION('',(0.0,0.0,-1.0));
#376=DIRECTION('',(1.0,0.0,0.0));
#377=DIRECTION('',(0.0,0.0,-1.0));
#378=DIRECTION('',(-1.0,0.0,0.0));
#379=DIRECTION('',(0.0,0.0,-1.0));
#380=DIRECTION('',(1.0,0.0,0.0));
#381=DIRECTION('',(0.0,0.0,-1.0));
#382=DIRECTION('',(-1.0,0.0,0.0));
#383=DIRECTION('',(0.0,0.0,-1.0));
#384=DIRECTION('',(1.0,0.0,0.0));
#385=DIRECTION('',(0.0,0.0,-1.0));
#386=DIRECTION('',(-1.0,0.0,6.83301345131469E-16));
#387=DIRECTION('',(0.0,0.0,-1.0));
#388=DIRECTION('',(-1.0,0.0,7.71909371889191E-17));
#389=CARTESIAN_POINT('',(0.0,0.0,0.0));
#390=CARTESIAN_POINT('',(4.80364135811866E-15,0.0,-115.17289661673));
#391=CARTESIAN_POINT('',(-12.49675,0.0,-115.17289661673));
#392=CARTESIAN_POINT('',(0.0,0.0,-1.0));
#393=CARTESIAN_POINT('',(12.49675,0.0,-1.0));
#394=CARTESIAN_POINT('',(-1.28785870856518E-14,0.0,-58.0));
#395=CARTESIAN_POINT('',(2.17603712826531E-14,0.0,-170.0));
#396=CARTESIAN_POINT('',(-7.69999999999996,0.0,-170.0));
#397=CARTESIAN_POINT('',(4.80364135811866E-15,0.0,-115.17289661673));
#398=CARTESIAN_POINT('',(0.0,0.0,-170.0));
#399=CARTESIAN_POINT('',(6.34246876431976,0.0,-170.0));
#400=CARTESIAN_POINT('',(7.7,0.0,-170.0));
#401=CARTESIAN_POINT('',(0.0,0.0,0.0));
#402=CARTESIAN_POINT('',(11.49675,0.0,0.0));
#403=CARTESIAN_POINT('',(0.0,0.0,0.0));
#404=CARTESIAN_POINT('',(0.0,0.0,0.0));
#405=CARTESIAN_POINT('',(0.0,0.0,-149.381966317928));
#406=CARTESIAN_POINT('',(0.0,0.0,-151.5));
#407=CARTESIAN_POINT('',(3.525,0.0,-151.5));
#408=CARTESIAN_POINT('',(0.0,0.0,-151.5));
#409=CARTESIAN_POINT('',(0.0,0.0,-154.85));
#410=CARTESIAN_POINT('',(3.525,0.0,-154.85));
#411=CARTESIAN_POINT('',(0.0,0.0,-170.0));
#412=CARTESIAN_POINT('',(0.0,0.0,-155.046305996237));
#413=CARTESIAN_POINT('',(3.68673832411469,0.0,-155.046305996237));
#414=CARTESIAN_POINT('',(0.0,0.0,-154.85));
#415=CARTESIAN_POINT('',(0.0,0.0,-156.846240317807));
#416=CARTESIAN_POINT('',(4.07007273428457,0.0,-156.846240317807));
#417=CARTESIAN_POINT('',(0.0,0.0,-156.02783597742));
#418=CARTESIAN_POINT('',(0.0,0.0,-157.4));
#419=CARTESIAN_POINT('',(3.81814527082145,0.0,-157.4));
#420=CARTESIAN_POINT('',(0.0,0.0,-157.337282922039));
#421=CARTESIAN_POINT('',(0.0,0.0,-165.6));
#422=CARTESIAN_POINT('',(4.68,0.0,-165.6));
#423=CARTESIAN_POINT('',(0.0,0.0,-165.6));
#424=CARTESIAN_POINT('',(0.0,0.0,-165.799539608446));
#425=CARTESIAN_POINT('',(5.2203190359301,0.0,-165.799539608446));
#426=CARTESIAN_POINT('',(0.0,0.0,-165.799539608446));
#427=CARTESIAN_POINT('',(0.0,0.0,-166.55));
#428=CARTESIAN_POINT('',(5.74317430711815,0.0,-166.55));
#429=CARTESIAN_POINT('',(0.0,0.0,-166.55));
#430=CARTESIAN_POINT('',(0.0,0.0,-167.5));
#431=CARTESIAN_POINT('',(5.74317430711815,0.0,-167.5));
#432=CARTESIAN_POINT('',(0.0,0.0,-170.0));
#433=CARTESIAN_POINT('',(0.0,0.0,-167.8));
#434=CARTESIAN_POINT('',(5.64317430711816,0.0,-167.8));
#435=CARTESIAN_POINT('',(0.0,0.0,-167.5));
#436=CARTESIAN_POINT('',(0.0,0.0,-169.4));
#437=CARTESIAN_POINT('',(5.69904753830495,0.0,-169.4));
#438=CARTESIAN_POINT('',(0.0,0.0,-169.4));
#439=CARTESIAN_POINT('',(0.0,0.0,-170.0));
#440=MECHANICAL_DESIGN_GEOMETRIC_PRESENTATION_REPRESENTATION('',(#96),#441);
#441=(GEOMETRIC_REPRESENTATION_CONTEXT(3)GLOBAL_UNCERTAINTY_ASSIGNED_CONTEXT((#442))
     GLOBAL_UNIT_ASSIGNED_CONTEXT((#448,#444,#443))REPRESENTATION_CONTEXT('E16_A25_CS_170_634382101138596336_1_stp',
     'TOP_LEVEL_ASSEMBLY_PART'));
#442=UNCERTAINTY_MEASURE_WITH_UNIT(LENGTH_MEASURE(2.0E-5),#448,'DISTANCE_ACCURACY_VALUE',
     'Maximum Tolerance applied to model');
#443=(NAMED_UNIT(*)SI_UNIT($,.STERADIAN.)SOLID_ANGLE_UNIT());
#444=(CONVERSION_BASED_UNIT('DEGREE',#446)NAMED_UNIT(*)PLANE_ANGLE_UNIT());
#445=DIMENSIONAL_EXPONENTS(0.0,0.0,0.0,0.0,0.0,0.0,0.0);
#446=PLANE_ANGLE_MEASURE_WITH_UNIT(PLANE_ANGLE_MEASURE(0.0174532925),#447);
#447=(NAMED_UNIT(*)PLANE_ANGLE_UNIT()SI_UNIT($,.RADIAN.));
#448=(LENGTH_UNIT()NAMED_UNIT(*)SI_UNIT(.MILLI.,.METRE.));
#449=CARTESIAN_POINT('',(0.0,0.0,0.0));
#450=DIRECTION('',(0.0,0.0,1.0));
#451=DIRECTION('',(1.0,0.0,0.0));
#452=AXIS2_PLACEMENT_3D('PCS',#449,#450,#451);
#453=CARTESIAN_POINT('',(0.0,0.0,-47.0));
#454=DIRECTION('',(0.0,0.0,1.0));
#455=DIRECTION('',(1.0,0.0,0.0));
#456=AXIS2_PLACEMENT_3D('MCS',#453,#454,#455);
#457=CARTESIAN_POINT('',(0.0,0.0,-170.0));
#458=DIRECTION('',(0.0,0.0,1.0));
#459=DIRECTION('',(1.0,0.0,0.0));
#460=AXIS2_PLACEMENT_3D('CSW',#457,#458,#459);
#461=CONSTRUCTIVE_GEOMETRY_REPRESENTATION('supplemental geometry',(#452,#456,#460),
     #441);
#462=CONSTRUCTIVE_GEOMETRY_REPRESENTATION_RELATIONSHIP('supplemental geometry',$,
     #94,#461);
ENDSEC;
END-ISO-10303-21;
