ISO-10303-21;
HEADER;
FILE_DESCRIPTION(
/* description */ ('3-D model version:1'),
/* implementation_level */ '2;1');
FILE_NAME(
/* name */ 'E10-A32-CS-250',
/* time_stamp */ '2016-12-02T13:55:36',
/* author */ ('InteractiveCad'),
/* organization */ ('AB Sandvik Coromant'),
/* preprocessor_version */ 'ST-DEVELOPER v11',
/* originating_system */ 'SIEMENS UGS NX 6.0',
/* authorization */ '');
FILE_SCHEMA(('AUTOMOTIVE_DESIGN'));
ENDSEC;
DATA;
#10=SHAPE_REPRESENTATION_RELATIONSHIP('None','relationship between E10_A32_CS_250_634382083721319280_1_stp-None and E10_A32_CS_250_634382083721319280_1_stp-None',
     #94,#11);
#11=ADVANCED_BREP_SHAPE_REPRESENTATION('E10_A32_CS_250_634382083721319280_1_stp-None',
     (#104),#461);
#15=APPROVAL_PERSON_ORGANIZATION(#69,#24,#18);
#16=APPROVAL_PERSON_ORGANIZATION(#70,#25,#19);
#17=APPROVAL_PERSON_ORGANIZATION(#71,#26,#20);
#18=APPROVAL_ROLE('approver');
#19=APPROVAL_ROLE('approver');
#20=APPROVAL_ROLE('approver');
#21=APPROVAL_DATE_TIME(#39,#24);
#22=APPROVAL_DATE_TIME(#40,#25);
#23=APPROVAL_DATE_TIME(#41,#26);
#24=APPROVAL(#27,' ');
#25=APPROVAL(#28,' ');
#26=APPROVAL(#29,' ');
#27=APPROVAL_STATUS('not_yet_approved');
#28=APPROVAL_STATUS('not_yet_approved');
#29=APPROVAL_STATUS('not_yet_approved');
#31=SECURITY_CLASSIFICATION(' ',' ',#32);
#32=SECURITY_CLASSIFICATION_LEVEL('confidential');
#35=DATE_TIME_ROLE('creation_date');
#36=DATE_TIME_ROLE('classification_date');
#37=DATE_AND_TIME(#52,#42);
#38=DATE_AND_TIME(#53,#43);
#39=DATE_AND_TIME(#54,#44);
#40=DATE_AND_TIME(#55,#45);
#41=DATE_AND_TIME(#56,#46);
#42=LOCAL_TIME(0,0,0.0,#47);
#43=LOCAL_TIME(0,0,0.0,#48);
#44=LOCAL_TIME(0,0,0.0,#49);
#45=LOCAL_TIME(0,0,0.0,#50);
#46=LOCAL_TIME(0,0,0.0,#51);
#47=COORDINATED_UNIVERSAL_TIME_OFFSET(0,0,.BEHIND.);
#48=COORDINATED_UNIVERSAL_TIME_OFFSET(0,0,.BEHIND.);
#49=COORDINATED_UNIVERSAL_TIME_OFFSET(0,0,.BEHIND.);
#50=COORDINATED_UNIVERSAL_TIME_OFFSET(0,0,.BEHIND.);
#51=COORDINATED_UNIVERSAL_TIME_OFFSET(0,0,.BEHIND.);
#52=CALENDAR_DATE(0,1,1);
#53=CALENDAR_DATE(0,1,1);
#54=CALENDAR_DATE(0,1,1);
#55=CALENDAR_DATE(0,1,1);
#56=CALENDAR_DATE(0,1,1);
#61=PERSON_AND_ORGANIZATION_ROLE('creator');
#62=PERSON_AND_ORGANIZATION_ROLE('design_owner');
#63=PERSON_AND_ORGANIZATION_ROLE('design_supplier');
#64=PERSON_AND_ORGANIZATION_ROLE('classification_officer');
#65=PERSON_AND_ORGANIZATION(#79,#72);
#66=PERSON_AND_ORGANIZATION(#79,#73);
#67=PERSON_AND_ORGANIZATION(#79,#74);
#68=PERSON_AND_ORGANIZATION(#79,#75);
#69=PERSON_AND_ORGANIZATION(#79,#76);
#70=PERSON_AND_ORGANIZATION(#79,#77);
#71=PERSON_AND_ORGANIZATION(#79,#78);
#72=ORGANIZATION(' ',' ',' ');
#73=ORGANIZATION(' ',' ',' ');
#74=ORGANIZATION(' ',' ',' ');
#75=ORGANIZATION(' ',' ',' ');
#76=ORGANIZATION(' ',' ',' ');
#77=ORGANIZATION(' ',' ',' ');
#78=ORGANIZATION(' ',' ',' ');
#79=PERSON(' ',' ',' ',(' '),$,$);
#80=SHAPE_DEFINITION_REPRESENTATION(#81,#94);
#81=PRODUCT_DEFINITION_SHAPE('','',#82);
#82=PRODUCT_DEFINITION(' ','',#84,$);
#84=PRODUCT_DEFINITION_FORMATION_WITH_SPECIFIED_SOURCE(' ',' ',#86,.NOT_KNOWN.);
#85=PRODUCT_RELATED_PRODUCT_CATEGORY('detail','',(#86));
#86=PRODUCT('E10_A32_CS_250_634382083721319280_1_stp','E10_A32_CS_250_634382083721319280_1_stp',
     ' ',());
#87=PRODUCT_CATEGORY_RELATIONSHIP(' ',' ',#89,#90);
#88=PRODUCT_CATEGORY_RELATIONSHIP('','',#90,#85);
#89=PRODUCT_CATEGORY('part',' ');
#90=PRODUCT_CATEGORY(' ','');
#92=APPLICATION_PROTOCOL_DEFINITION('international standard','config_control_design',
     1994,#93);
#93=APPLICATION_CONTEXT('configuration controlled 3D designs of mechanical parts and assemblies');
#94=SHAPE_REPRESENTATION('E10_A32_CS_250_634382083721319280_1_stp-None',(#298),#461);
#95=PRESENTATION_LAYER_ASSIGNMENT('1','Layer 1',(#104));
#96=STYLED_ITEM('',(#97),#104);
#97=PRESENTATION_STYLE_ASSIGNMENT((#98));
#98=SURFACE_STYLE_USAGE(.BOTH.,#99);
#99=SURFACE_SIDE_STYLE('',(#100));
#100=SURFACE_STYLE_FILL_AREA(#101);
#101=FILL_AREA_STYLE('',(#102));
#102=FILL_AREA_STYLE_COLOUR('',#103);
#103=COLOUR_RGB('TLS_NOCUT',0.499992370489052,0.499992370489052,0.499992370489052);
#104=MANIFOLD_SOLID_BREP('NOCUT',#105);
#105=CLOSED_SHELL('',(#123,#124,#125,#126,#127,#128,#129,#130,#131,#132,#133,#134,
     #135,#136,#137,#138,#139,#140));
#106=TOROIDAL_SURFACE('',#314,2.425,0.2);
#107=TOROIDAL_SURFACE('',#318,2.20737450454426,0.799999999999997);
#108=TOROIDAL_SURFACE('',#326,3.44813469186403,0.2);
#109=TOROIDAL_SURFACE('',#330,3.44813469186403,0.2);
#110=VERTEX_LOOP('',#252);
#111=FACE_OUTER_BOUND('',#184,.T.);
#112=PLANE('',#305);
#113=PLANE('',#307);
#114=CONICAL_SURFACE('',#303,15.996,10.0);
#115=CONICAL_SURFACE('',#308,14.496,45.0);
#116=CONICAL_SURFACE('',#310,4.44089209850063E-16,59.0000000000001);
#117=CONICAL_SURFACE('',#316,2.3732361909795,74.9999999999912);
#118=CONICAL_SURFACE('',#320,2.72160459229349,49.9999999999992);
#119=CONICAL_SURFACE('',#322,2.59027234429821,5.99999999999999);
#120=CONICAL_SURFACE('',#324,3.13,74.9999999999999);
#121=CONICAL_SURFACE('',#332,3.54813469186403,2.00000000000002);
#122=CONICAL_SURFACE('',#333,3.59003961525413,45.0);
#123=ADVANCED_FACE('FP_EH_SU1',(#144,#145),#141,.T.);
#124=ADVANCED_FACE('FP_EH_SU3',(#146,#147),#114,.T.);
#125=ADVANCED_FACE('FP_EH_SU4',(#148,#149),#112,.T.);
#126=ADVANCED_FACE('',(#111),#113,.F.);
#127=ADVANCED_FACE('',(#150,#151),#115,.T.);
#128=ADVANCED_FACE('',(#152,#153),#116,.F.);
#129=ADVANCED_FACE('DCH3',(#154,#155),#142,.F.);
#130=ADVANCED_FACE('',(#156,#157),#106,.T.);
#131=ADVANCED_FACE('',(#158,#159),#117,.F.);
#132=ADVANCED_FACE('',(#160,#161),#107,.F.);
#133=ADVANCED_FACE('',(#162,#163),#118,.F.);
#134=ADVANCED_FACE('TSALN',(#164,#165),#119,.F.);
#135=ADVANCED_FACE('',(#166,#167),#120,.F.);
#136=ADVANCED_FACE('',(#168,#169),#108,.F.);
#137=ADVANCED_FACE('DCH2',(#170,#171),#143,.F.);
#138=ADVANCED_FACE('',(#172,#173),#109,.F.);
#139=ADVANCED_FACE('TSAN',(#174,#175),#121,.F.);
#140=ADVANCED_FACE('DCH4',(#176,#177),#122,.F.);
#141=CYLINDRICAL_SURFACE('',#301,15.996);
#142=CYLINDRICAL_SURFACE('',#312,2.225);
#143=CYLINDRICAL_SURFACE('',#328,3.64813469186403);
#144=FACE_BOUND('',#178,.T.);
#145=FACE_BOUND('',#179,.T.);
#146=FACE_BOUND('',#180,.T.);
#147=FACE_BOUND('',#181,.T.);
#148=FACE_BOUND('',#182,.T.);
#149=FACE_BOUND('',#183,.T.);
#150=FACE_BOUND('',#185,.T.);
#151=FACE_BOUND('',#186,.T.);
#152=FACE_BOUND('',#187,.T.);
#153=FACE_BOUND('',#110,.T.);
#154=FACE_BOUND('',#188,.T.);
#155=FACE_BOUND('',#189,.T.);
#156=FACE_BOUND('',#190,.T.);
#157=FACE_BOUND('',#191,.T.);
#158=FACE_BOUND('',#192,.T.);
#159=FACE_BOUND('',#193,.T.);
#160=FACE_BOUND('',#194,.T.);
#161=FACE_BOUND('',#195,.T.);
#162=FACE_BOUND('',#196,.T.);
#163=FACE_BOUND('',#197,.T.);
#164=FACE_BOUND('',#198,.T.);
#165=FACE_BOUND('',#199,.T.);
#166=FACE_BOUND('',#200,.T.);
#167=FACE_BOUND('',#201,.T.);
#168=FACE_BOUND('',#202,.T.);
#169=FACE_BOUND('',#203,.T.);
#170=FACE_BOUND('',#204,.T.);
#171=FACE_BOUND('',#205,.T.);
#172=FACE_BOUND('',#206,.T.);
#173=FACE_BOUND('',#207,.T.);
#174=FACE_BOUND('',#208,.T.);
#175=FACE_BOUND('',#209,.T.);
#176=FACE_BOUND('',#210,.T.);
#177=FACE_BOUND('',#211,.T.);
#178=EDGE_LOOP('',(#212));
#179=EDGE_LOOP('',(#213));
#180=EDGE_LOOP('',(#214));
#181=EDGE_LOOP('',(#215));
#182=EDGE_LOOP('',(#216));
#183=EDGE_LOOP('',(#217));
#184=EDGE_LOOP('',(#218));
#185=EDGE_LOOP('',(#219));
#186=EDGE_LOOP('',(#220));
#187=EDGE_LOOP('',(#221));
#188=EDGE_LOOP('',(#222));
#189=EDGE_LOOP('',(#223));
#190=EDGE_LOOP('',(#224));
#191=EDGE_LOOP('',(#225));
#192=EDGE_LOOP('',(#226));
#193=EDGE_LOOP('',(#227));
#194=EDGE_LOOP('',(#228));
#195=EDGE_LOOP('',(#229));
#196=EDGE_LOOP('',(#230));
#197=EDGE_LOOP('',(#231));
#198=EDGE_LOOP('',(#232));
#199=EDGE_LOOP('',(#233));
#200=EDGE_LOOP('',(#234));
#201=EDGE_LOOP('',(#235));
#202=EDGE_LOOP('',(#236));
#203=EDGE_LOOP('',(#237));
#204=EDGE_LOOP('',(#238));
#205=EDGE_LOOP('',(#239));
#206=EDGE_LOOP('',(#240));
#207=EDGE_LOOP('',(#241));
#208=EDGE_LOOP('',(#242));
#209=EDGE_LOOP('',(#243));
#210=EDGE_LOOP('',(#244));
#211=EDGE_LOOP('',(#245));
#212=ORIENTED_EDGE('',*,*,#264,.T.);
#213=ORIENTED_EDGE('',*,*,#265,.T.);
#214=ORIENTED_EDGE('',*,*,#266,.T.);
#215=ORIENTED_EDGE('',*,*,#264,.F.);
#216=ORIENTED_EDGE('',*,*,#267,.F.);
#217=ORIENTED_EDGE('',*,*,#266,.F.);
#218=ORIENTED_EDGE('',*,*,#268,.F.);
#219=ORIENTED_EDGE('',*,*,#265,.F.);
#220=ORIENTED_EDGE('',*,*,#268,.T.);
#221=ORIENTED_EDGE('',*,*,#269,.T.);
#222=ORIENTED_EDGE('',*,*,#270,.T.);
#223=ORIENTED_EDGE('',*,*,#269,.F.);
#224=ORIENTED_EDGE('',*,*,#271,.T.);
#225=ORIENTED_EDGE('',*,*,#270,.F.);
#226=ORIENTED_EDGE('',*,*,#272,.T.);
#227=ORIENTED_EDGE('',*,*,#271,.F.);
#228=ORIENTED_EDGE('',*,*,#273,.T.);
#229=ORIENTED_EDGE('',*,*,#272,.F.);
#230=ORIENTED_EDGE('',*,*,#274,.T.);
#231=ORIENTED_EDGE('',*,*,#273,.F.);
#232=ORIENTED_EDGE('',*,*,#275,.T.);
#233=ORIENTED_EDGE('',*,*,#274,.F.);
#234=ORIENTED_EDGE('',*,*,#276,.T.);
#235=ORIENTED_EDGE('',*,*,#275,.F.);
#236=ORIENTED_EDGE('',*,*,#277,.T.);
#237=ORIENTED_EDGE('',*,*,#276,.F.);
#238=ORIENTED_EDGE('',*,*,#278,.T.);
#239=ORIENTED_EDGE('',*,*,#277,.F.);
#240=ORIENTED_EDGE('',*,*,#279,.T.);
#241=ORIENTED_EDGE('',*,*,#278,.F.);
#242=ORIENTED_EDGE('',*,*,#280,.T.);
#243=ORIENTED_EDGE('',*,*,#279,.F.);
#244=ORIENTED_EDGE('',*,*,#267,.T.);
#245=ORIENTED_EDGE('',*,*,#280,.F.);
#246=VERTEX_POINT('',#408);
#247=VERTEX_POINT('',#410);
#248=VERTEX_POINT('',#413);
#249=VERTEX_POINT('',#416);
#250=VERTEX_POINT('',#419);
#251=VERTEX_POINT('',#423);
#252=VERTEX_POINT('',#424);
#253=VERTEX_POINT('',#427);
#254=VERTEX_POINT('',#430);
#255=VERTEX_POINT('',#433);
#256=VERTEX_POINT('',#436);
#257=VERTEX_POINT('',#439);
#258=VERTEX_POINT('',#442);
#259=VERTEX_POINT('',#445);
#260=VERTEX_POINT('',#448);
#261=VERTEX_POINT('',#451);
#262=VERTEX_POINT('',#454);
#263=VERTEX_POINT('',#457);
#264=EDGE_CURVE('',#246,#246,#281,.T.);
#265=EDGE_CURVE('',#247,#247,#282,.T.);
#266=EDGE_CURVE('',#248,#248,#283,.T.);
#267=EDGE_CURVE('',#249,#249,#284,.T.);
#268=EDGE_CURVE('',#250,#250,#285,.T.);
#269=EDGE_CURVE('',#251,#251,#286,.T.);
#270=EDGE_CURVE('',#253,#253,#287,.T.);
#271=EDGE_CURVE('',#254,#254,#288,.T.);
#272=EDGE_CURVE('',#255,#255,#289,.T.);
#273=EDGE_CURVE('',#256,#256,#290,.T.);
#274=EDGE_CURVE('',#257,#257,#291,.T.);
#275=EDGE_CURVE('',#258,#258,#292,.T.);
#276=EDGE_CURVE('',#259,#259,#293,.T.);
#277=EDGE_CURVE('',#260,#260,#294,.T.);
#278=EDGE_CURVE('',#261,#261,#295,.T.);
#279=EDGE_CURVE('',#262,#262,#296,.T.);
#280=EDGE_CURVE('',#263,#263,#297,.T.);
#281=CIRCLE('',#299,15.996);
#282=CIRCLE('',#300,15.996);
#283=CIRCLE('',#302,4.79999999999997);
#284=CIRCLE('',#304,4.09003961525413);
#285=CIRCLE('',#306,14.496);
#286=CIRCLE('',#309,2.225);
#287=CIRCLE('',#311,2.225);
#288=CIRCLE('',#313,2.3732361909795);
#289=CIRCLE('',#315,2.41442974062627);
#290=CIRCLE('',#317,2.72160459229349);
#291=CIRCLE('',#319,2.59027234429821);
#292=CIRCLE('',#321,3.13);
#293=CIRCLE('',#323,3.49989850088453);
#294=CIRCLE('',#325,3.64813469186403);
#295=CIRCLE('',#327,3.64813469186403);
#296=CIRCLE('',#329,3.54813469186403);
#297=CIRCLE('',#331,3.59003961525413);
#298=AXIS2_PLACEMENT_3D('',#406,#334,#335);
#299=AXIS2_PLACEMENT_3D('',#407,#336,#337);
#300=AXIS2_PLACEMENT_3D('',#409,#338,#339);
#301=AXIS2_PLACEMENT_3D('',#411,#340,#341);
#302=AXIS2_PLACEMENT_3D('',#412,#342,#343);
#303=AXIS2_PLACEMENT_3D('',#414,#344,#345);
#304=AXIS2_PLACEMENT_3D('',#415,#346,#347);
#305=AXIS2_PLACEMENT_3D('',#417,#348,#349);
#306=AXIS2_PLACEMENT_3D('',#418,#350,#351);
#307=AXIS2_PLACEMENT_3D('',#420,#352,#353);
#308=AXIS2_PLACEMENT_3D('',#421,#354,#355);
#309=AXIS2_PLACEMENT_3D('',#422,#356,#357);
#310=AXIS2_PLACEMENT_3D('',#425,#358,#359);
#311=AXIS2_PLACEMENT_3D('',#426,#360,#361);
#312=AXIS2_PLACEMENT_3D('',#428,#362,#363);
#313=AXIS2_PLACEMENT_3D('',#429,#364,#365);
#314=AXIS2_PLACEMENT_3D('',#431,#366,#367);
#315=AXIS2_PLACEMENT_3D('',#432,#368,#369);
#316=AXIS2_PLACEMENT_3D('',#434,#370,#371);
#317=AXIS2_PLACEMENT_3D('',#435,#372,#373);
#318=AXIS2_PLACEMENT_3D('',#437,#374,#375);
#319=AXIS2_PLACEMENT_3D('',#438,#376,#377);
#320=AXIS2_PLACEMENT_3D('',#440,#378,#379);
#321=AXIS2_PLACEMENT_3D('',#441,#380,#381);
#322=AXIS2_PLACEMENT_3D('',#443,#382,#383);
#323=AXIS2_PLACEMENT_3D('',#444,#384,#385);
#324=AXIS2_PLACEMENT_3D('',#446,#386,#387);
#325=AXIS2_PLACEMENT_3D('',#447,#388,#389);
#326=AXIS2_PLACEMENT_3D('',#449,#390,#391);
#327=AXIS2_PLACEMENT_3D('',#450,#392,#393);
#328=AXIS2_PLACEMENT_3D('',#452,#394,#395);
#329=AXIS2_PLACEMENT_3D('',#453,#396,#397);
#330=AXIS2_PLACEMENT_3D('',#455,#398,#399);
#331=AXIS2_PLACEMENT_3D('',#456,#400,#401);
#332=AXIS2_PLACEMENT_3D('',#458,#402,#403);
#333=AXIS2_PLACEMENT_3D('',#459,#404,#405);
#334=DIRECTION('',(0.0,0.0,1.0));
#335=DIRECTION('',(1.0,0.0,0.0));
#336=DIRECTION('',(-2.85823374424774E-16,0.0,1.0));
#337=DIRECTION('',(-1.0,0.0,0.0));
#338=DIRECTION('',(0.0,0.0,-1.0));
#339=DIRECTION('',(1.0,0.0,0.0));
#340=DIRECTION('',(-2.85823374424774E-16,0.0,1.0));
#341=DIRECTION('',(1.0,0.0,4.33789316323283E-16));
#342=DIRECTION('',(-2.85823374424774E-16,0.0,1.0));
#343=DIRECTION('',(-1.0,0.0,0.0));
#344=DIRECTION('',(-2.85823374424774E-16,0.0,1.0));
#345=DIRECTION('',(1.0,0.0,-2.88635040008064E-16));
#346=DIRECTION('',(0.0,0.0,-1.0));
#347=DIRECTION('',(1.0,0.0,0.0));
#348=DIRECTION('',(2.85823374424774E-16,0.0,-1.0));
#349=DIRECTION('',(-1.0,0.0,-2.77555756156289E-16));
#350=DIRECTION('',(0.0,0.0,-1.0));
#351=DIRECTION('',(1.0,0.0,0.0));
#352=DIRECTION('',(0.0,0.0,-1.0));
#353=DIRECTION('',(-1.0,0.0,0.0));
#354=DIRECTION('',(0.0,0.0,-1.0));
#355=DIRECTION('',(-1.0,0.0,0.0));
#356=DIRECTION('',(0.0,0.0,-1.0));
#357=DIRECTION('',(1.0,0.0,0.0));
#358=DIRECTION('',(0.0,0.0,-1.0));
#359=DIRECTION('',(-1.0,0.0,1.6677232345873E-17));
#360=DIRECTION('',(0.0,0.0,-1.0));
#361=DIRECTION('',(1.0,0.0,0.0));
#362=DIRECTION('',(0.0,0.0,-1.0));
#363=DIRECTION('',(-1.0,0.0,0.0));
#364=DIRECTION('',(0.0,0.0,-1.0));
#365=DIRECTION('',(1.0,0.0,0.0));
#366=DIRECTION('',(0.0,0.0,-1.0));
#367=DIRECTION('',(-1.0,0.0,0.0));
#368=DIRECTION('',(0.0,0.0,-1.0));
#369=DIRECTION('',(1.0,0.0,0.0));
#370=DIRECTION('',(0.0,0.0,-1.0));
#371=DIRECTION('',(-1.0,0.0,-1.4864715570812E-17));
#372=DIRECTION('',(0.0,0.0,-1.0));
#373=DIRECTION('',(1.0,0.0,0.0));
#374=DIRECTION('',(0.0,0.0,-1.0));
#375=DIRECTION('',(-1.0,0.0,0.0));
#376=DIRECTION('',(0.0,0.0,-1.0));
#377=DIRECTION('',(1.0,0.0,0.0));
#378=DIRECTION('',(0.0,0.0,1.0));
#379=DIRECTION('',(1.0,0.0,2.32366278353924E-17));
#380=DIRECTION('',(0.0,0.0,-1.0));
#381=DIRECTION('',(1.0,0.0,0.0));
#382=DIRECTION('',(0.0,0.0,-1.0));
#383=DIRECTION('',(-1.0,0.0,0.0));
#384=DIRECTION('',(0.0,0.0,-1.0));
#385=DIRECTION('',(1.0,0.0,0.0));
#386=DIRECTION('',(0.0,0.0,-1.0));
#387=DIRECTION('',(-1.0,0.0,2.22925558725719E-17));
#388=DIRECTION('',(0.0,0.0,-1.0));
#389=DIRECTION('',(1.0,0.0,0.0));
#390=DIRECTION('',(0.0,0.0,-1.0));
#391=DIRECTION('',(-1.0,0.0,0.0));
#392=DIRECTION('',(0.0,0.0,-1.0));
#393=DIRECTION('',(1.0,0.0,0.0));
#394=DIRECTION('',(0.0,0.0,-1.0));
#395=DIRECTION('',(-1.0,0.0,0.0));
#396=DIRECTION('',(0.0,0.0,-1.0));
#397=DIRECTION('',(1.0,0.0,0.0));
#398=DIRECTION('',(0.0,0.0,-1.0));
#399=DIRECTION('',(-1.0,0.0,0.0));
#400=DIRECTION('',(0.0,0.0,-1.0));
#401=DIRECTION('',(1.0,0.0,0.0));
#402=DIRECTION('',(0.0,0.0,-1.0));
#403=DIRECTION('',(-1.0,0.0,1.44301358225082E-15));
#404=DIRECTION('',(0.0,0.0,-1.0));
#405=DIRECTION('',(-1.0,0.0,-5.53125768890045E-17));
#406=CARTESIAN_POINT('',(0.0,0.0,0.0));
#407=CARTESIAN_POINT('',(1.33817868806159E-14,0.0,-186.50432874756));
#408=CARTESIAN_POINT('',(-15.996,0.0,-186.50432874756));
#409=CARTESIAN_POINT('',(0.0,0.0,-1.5));
#410=CARTESIAN_POINT('',(15.996,0.0,-1.5));
#411=CARTESIAN_POINT('',(-2.22044604925031E-14,0.0,-62.0));
#412=CARTESIAN_POINT('',(3.15303338993544E-14,0.0,-250.0));
#413=CARTESIAN_POINT('',(-4.79999999999994,0.0,-250.0));
#414=CARTESIAN_POINT('',(1.33817868806159E-14,0.0,-186.50432874756));
#415=CARTESIAN_POINT('',(0.0,0.0,-250.0));
#416=CARTESIAN_POINT('',(4.09003961525413,0.0,-250.0));
#417=CARTESIAN_POINT('',(4.8,0.0,-250.0));
#418=CARTESIAN_POINT('',(0.0,0.0,0.0));
#419=CARTESIAN_POINT('',(14.496,0.0,0.0));
#420=CARTESIAN_POINT('',(0.0,0.0,0.0));
#421=CARTESIAN_POINT('',(0.0,0.0,0.0));
#422=CARTESIAN_POINT('',(0.0,0.0,-237.0));
#423=CARTESIAN_POINT('',(2.225,0.0,-237.0));
#424=CARTESIAN_POINT('',(-4.44089209850063E-16,0.0,-235.663085122664));
#425=CARTESIAN_POINT('',(0.0,0.0,-235.663085122664));
#426=CARTESIAN_POINT('',(0.0,0.0,-240.3));
#427=CARTESIAN_POINT('',(2.225,0.0,-240.3));
#428=CARTESIAN_POINT('',(0.0,0.0,-250.0));
#429=CARTESIAN_POINT('',(0.0,0.0,-240.493185165258));
#430=CARTESIAN_POINT('',(2.3732361909795,0.0,-240.493185165258));
#431=CARTESIAN_POINT('',(0.0,0.0,-240.3));
#432=CARTESIAN_POINT('',(0.0,0.0,-240.504222943619));
#433=CARTESIAN_POINT('',(2.41442974062627,0.0,-240.504222943619));
#434=CARTESIAN_POINT('',(0.0,0.0,-240.493185165258));
#435=CARTESIAN_POINT('',(0.0,0.0,-241.889799159145));
#436=CARTESIAN_POINT('',(2.72160459229349,0.0,-241.889799159145));
#437=CARTESIAN_POINT('',(0.0,0.0,-241.27696360465));
#438=CARTESIAN_POINT('',(0.0,0.0,-242.0));
#439=CARTESIAN_POINT('',(2.59027234429821,0.0,-242.0));
#440=CARTESIAN_POINT('',(0.0,0.0,-241.889799159145));
#441=CARTESIAN_POINT('',(0.0,0.0,-247.13516562237));
#442=CARTESIAN_POINT('',(3.13,0.0,-247.13516562237));
#443=CARTESIAN_POINT('',(0.0,0.0,-242.0));
#444=CARTESIAN_POINT('',(0.0,0.0,-247.234279626963));
#445=CARTESIAN_POINT('',(3.49989850088453,0.0,-247.234279626963));
#446=CARTESIAN_POINT('',(0.0,0.0,-247.13516562237));
#447=CARTESIAN_POINT('',(0.0,0.0,-247.427464792221));
#448=CARTESIAN_POINT('',(3.64813469186403,0.0,-247.427464792221));
#449=CARTESIAN_POINT('',(0.0,0.0,-247.427464792221));
#450=CARTESIAN_POINT('',(0.0,0.0,-248.126794919243));
#451=CARTESIAN_POINT('',(3.64813469186403,0.0,-248.126794919243));
#452=CARTESIAN_POINT('',(0.0,0.0,-250.0));
#453=CARTESIAN_POINT('',(0.0,0.0,-248.3));
#454=CARTESIAN_POINT('',(3.54813469186403,0.0,-248.3));
#455=CARTESIAN_POINT('',(0.0,0.0,-248.126794919243));
#456=CARTESIAN_POINT('',(0.0,0.0,-249.5));
#457=CARTESIAN_POINT('',(3.59003961525413,0.0,-249.5));
#458=CARTESIAN_POINT('',(0.0,0.0,-248.3));
#459=CARTESIAN_POINT('',(0.0,0.0,-249.5));
#460=MECHANICAL_DESIGN_GEOMETRIC_PRESENTATION_REPRESENTATION('',(#96),#461);
#461=(GEOMETRIC_REPRESENTATION_CONTEXT(3)GLOBAL_UNCERTAINTY_ASSIGNED_CONTEXT((#462))
     GLOBAL_UNIT_ASSIGNED_CONTEXT((#468,#464,#463))REPRESENTATION_CONTEXT('E10_A32_CS_250_634382083721319280_1_stp',
     'TOP_LEVEL_ASSEMBLY_PART'));
#462=UNCERTAINTY_MEASURE_WITH_UNIT(LENGTH_MEASURE(2.0E-5),#468,'DISTANCE_ACCURACY_VALUE',
     'Maximum Tolerance applied to model');
#463=(NAMED_UNIT(*)SI_UNIT($,.STERADIAN.)SOLID_ANGLE_UNIT());
#464=(CONVERSION_BASED_UNIT('DEGREE',#466)NAMED_UNIT(*)PLANE_ANGLE_UNIT());
#465=DIMENSIONAL_EXPONENTS(0.0,0.0,0.0,0.0,0.0,0.0,0.0);
#466=PLANE_ANGLE_MEASURE_WITH_UNIT(PLANE_ANGLE_MEASURE(0.0174532925),#467);
#467=(NAMED_UNIT(*)PLANE_ANGLE_UNIT()SI_UNIT($,.RADIAN.));
#468=(LENGTH_UNIT()NAMED_UNIT(*)SI_UNIT(.MILLI.,.METRE.));
#469=CARTESIAN_POINT('',(0.0,0.0,0.0));
#470=DIRECTION('',(0.0,0.0,1.0));
#471=DIRECTION('',(1.0,0.0,0.0));
#472=AXIS2_PLACEMENT_3D('PCS',#469,#470,#471);
#473=CARTESIAN_POINT('',(0.0,0.0,-51.0));
#474=DIRECTION('',(0.0,0.0,1.0));
#475=DIRECTION('',(1.0,0.0,0.0));
#476=AXIS2_PLACEMENT_3D('MCS',#473,#474,#475);
#477=CARTESIAN_POINT('',(0.0,0.0,-250.0));
#478=DIRECTION('',(0.0,0.0,1.0));
#479=DIRECTION('',(1.0,0.0,0.0));
#480=AXIS2_PLACEMENT_3D('CSW',#477,#478,#479);
#481=CONSTRUCTIVE_GEOMETRY_REPRESENTATION('supplemental geometry',(#472,#476,#480),
     #461);
#482=CONSTRUCTIVE_GEOMETRY_REPRESENTATION_RELATIONSHIP('supplemental geometry',$,
     #94,#481);
ENDSEC;
END-ISO-10303-21;
