ISO-10303-21;
HEADER;
FILE_DESCRIPTION(
/* description */ ('3-D model version:1'),
/* implementation_level */ '2;1');
FILE_NAME(
/* name */ 'CY25A-Y25-050-100',
/* time_stamp */ '2016-12-02T14:03:08',
/* author */ ('CappDp'),
/* organization */ ('AB Sandvik Coromant'),
/* preprocessor_version */ 'ST-DEVELOPER v15',
/* originating_system */ 'SIEMENS PLM Software NX 8.5',
/* authorization */ '');
FILE_SCHEMA(('AUTOMOTIVE_DESIGN'));
ENDSEC;
DATA;
#10=SHAPE_REPRESENTATION_RELATIONSHIP('None','relationship between 3468_1_3D-None and 3468_1_3D-None',
     #92,#11);
#11=ADVANCED_BREP_SHAPE_REPRESENTATION('3468_1_3D-None',(#102),#675);
#15=APPROVAL_PERSON_ORGANIZATION(#69,#24,#18);
#16=APPROVAL_PERSON_ORGANIZATION(#70,#25,#19);
#17=APPROVAL_PERSON_ORGANIZATION(#71,#26,#20);
#18=APPROVAL_ROLE('approver');
#19=APPROVAL_ROLE('approver');
#20=APPROVAL_ROLE('approver');
#21=APPROVAL_DATE_TIME(#39,#24);
#22=APPROVAL_DATE_TIME(#40,#25);
#23=APPROVAL_DATE_TIME(#41,#26);
#24=APPROVAL(#27,' ');
#25=APPROVAL(#28,' ');
#26=APPROVAL(#29,' ');
#27=APPROVAL_STATUS('not_yet_approved');
#28=APPROVAL_STATUS('not_yet_approved');
#29=APPROVAL_STATUS('not_yet_approved');
#31=SECURITY_CLASSIFICATION(' ',' ',#32);
#32=SECURITY_CLASSIFICATION_LEVEL('confidential');
#35=DATE_TIME_ROLE('creation_date');
#36=DATE_TIME_ROLE('classification_date');
#37=DATE_AND_TIME(#52,#42);
#38=DATE_AND_TIME(#53,#43);
#39=DATE_AND_TIME(#54,#44);
#40=DATE_AND_TIME(#55,#45);
#41=DATE_AND_TIME(#56,#46);
#42=LOCAL_TIME(0,0,0.0,#47);
#43=LOCAL_TIME(0,0,0.0,#48);
#44=LOCAL_TIME(0,0,0.0,#49);
#45=LOCAL_TIME(0,0,0.0,#50);
#46=LOCAL_TIME(0,0,0.0,#51);
#47=COORDINATED_UNIVERSAL_TIME_OFFSET(0,0,.BEHIND.);
#48=COORDINATED_UNIVERSAL_TIME_OFFSET(0,0,.BEHIND.);
#49=COORDINATED_UNIVERSAL_TIME_OFFSET(0,0,.BEHIND.);
#50=COORDINATED_UNIVERSAL_TIME_OFFSET(0,0,.BEHIND.);
#51=COORDINATED_UNIVERSAL_TIME_OFFSET(0,0,.BEHIND.);
#52=CALENDAR_DATE(0,1,1);
#53=CALENDAR_DATE(0,1,1);
#54=CALENDAR_DATE(0,1,1);
#55=CALENDAR_DATE(0,1,1);
#56=CALENDAR_DATE(0,1,1);
#61=PERSON_AND_ORGANIZATION_ROLE('creator');
#62=PERSON_AND_ORGANIZATION_ROLE('design_owner');
#63=PERSON_AND_ORGANIZATION_ROLE('design_supplier');
#64=PERSON_AND_ORGANIZATION_ROLE('classification_officer');
#65=PERSON_AND_ORGANIZATION(#79,#72);
#66=PERSON_AND_ORGANIZATION(#79,#73);
#67=PERSON_AND_ORGANIZATION(#79,#74);
#68=PERSON_AND_ORGANIZATION(#79,#75);
#69=PERSON_AND_ORGANIZATION(#79,#76);
#70=PERSON_AND_ORGANIZATION(#79,#77);
#71=PERSON_AND_ORGANIZATION(#79,#78);
#72=ORGANIZATION(' ',' ',' ');
#73=ORGANIZATION(' ',' ',' ');
#74=ORGANIZATION(' ',' ',' ');
#75=ORGANIZATION(' ',' ',' ');
#76=ORGANIZATION(' ',' ',' ');
#77=ORGANIZATION(' ',' ',' ');
#78=ORGANIZATION(' ',' ',' ');
#79=PERSON(' ',' ',' ',(' '),$,$);
#80=SHAPE_DEFINITION_REPRESENTATION(#81,#92);
#81=PRODUCT_DEFINITION_SHAPE('','',#82);
#82=PRODUCT_DEFINITION(' ','',#84,$);
#84=PRODUCT_DEFINITION_FORMATION_WITH_SPECIFIED_SOURCE(' ',' ',#86,.NOT_KNOWN.);
#85=PRODUCT_RELATED_PRODUCT_CATEGORY('detail','',(#86));
#86=PRODUCT('3468_1_3D','3468_1_3D',' ',());
#87=PRODUCT_CATEGORY('part',' ');
#88=PRODUCT_CATEGORY(' ','');
#90=APPLICATION_PROTOCOL_DEFINITION('international standard','config_control_design',
     2010,#91);
#91=APPLICATION_CONTEXT('configuration controlled 3D designs of mechanical parts and assemblies');
#92=SHAPE_REPRESENTATION('3468_1_3D-None',(#414),#675);
#93=PRESENTATION_LAYER_ASSIGNMENT('1','Layer 1',(#102));
#94=STYLED_ITEM('',(#95),#102);
#95=PRESENTATION_STYLE_ASSIGNMENT((#96));
#96=SURFACE_STYLE_USAGE(.BOTH.,#97);
#97=SURFACE_SIDE_STYLE('',(#98));
#98=SURFACE_STYLE_FILL_AREA(#99);
#99=FILL_AREA_STYLE('',(#100));
#100=FILL_AREA_STYLE_COLOUR('',#101);
#101=COLOUR_RGB('TLS_NOCUT',0.499992370489052,0.499992370489052,0.499992370489052);
#102=MANIFOLD_SOLID_BREP('NOCUT',#103);
#103=CLOSED_SHELL('',(#176,#177,#178,#179,#180,#181,#182,#183,#184,#185,#186,#187,
     #188,#189,#190,#191,#192,#193,#194,#195,#196,#197,#198,#199,#200,#201,#202,
     #203,#204));
#104=TOROIDAL_SURFACE('',#426,13.55,0.999999999999998);
#105=TOROIDAL_SURFACE('',#430,24.0,1.0);
#106=CYLINDRICAL_SURFACE('',#420,12.69675);
#107=CYLINDRICAL_SURFACE('',#424,12.55);
#108=CYLINDRICAL_SURFACE('',#432,25.0);
#109=CYLINDRICAL_SURFACE('',#443,12.69675);
#110=CYLINDRICAL_SURFACE('',#445,2.497);
#111=CYLINDRICAL_SURFACE('',#449,4.0);
#112=CYLINDRICAL_SURFACE('',#452,2.497);
#113=CYLINDRICAL_SURFACE('',#456,4.0);
#114=CYLINDRICAL_SURFACE('',#459,2.497);
#115=CYLINDRICAL_SURFACE('',#463,4.0);
#116=CYLINDRICAL_SURFACE('',#466,2.497);
#117=CYLINDRICAL_SURFACE('',#470,4.0);
#118=CONICAL_SURFACE('',#418,11.19675,45.0);
#119=CONICAL_SURFACE('',#422,12.55,29.9999999999989);
#120=CONICAL_SURFACE('',#428,24.2588190451025,75.0);
#121=CONICAL_SURFACE('',#434,24.7,44.9999999999997);
#122=CONICAL_SURFACE('',#447,4.0,45.0);
#123=CONICAL_SURFACE('',#454,4.0,45.0);
#124=CONICAL_SURFACE('',#461,4.0,45.0);
#125=CONICAL_SURFACE('',#468,4.0,45.0);
#126=FACE_BOUND('',#219,.T.);
#127=FACE_BOUND('',#220,.T.);
#128=FACE_BOUND('',#221,.T.);
#129=FACE_BOUND('',#222,.T.);
#130=FACE_BOUND('',#223,.T.);
#131=FACE_BOUND('',#224,.T.);
#132=FACE_BOUND('',#225,.T.);
#133=FACE_BOUND('',#226,.T.);
#134=FACE_BOUND('',#227,.T.);
#135=FACE_BOUND('',#228,.T.);
#136=FACE_BOUND('',#229,.T.);
#137=FACE_BOUND('',#230,.T.);
#138=FACE_BOUND('',#231,.T.);
#139=FACE_BOUND('',#232,.T.);
#140=FACE_BOUND('',#233,.T.);
#141=FACE_BOUND('',#234,.T.);
#142=FACE_BOUND('',#235,.T.);
#143=FACE_BOUND('',#236,.T.);
#144=FACE_BOUND('',#237,.T.);
#145=FACE_BOUND('',#238,.T.);
#146=FACE_BOUND('',#239,.T.);
#147=FACE_BOUND('',#240,.T.);
#148=FACE_BOUND('',#241,.T.);
#149=FACE_BOUND('',#242,.T.);
#150=FACE_BOUND('',#244,.T.);
#151=FACE_BOUND('',#245,.T.);
#152=FACE_BOUND('',#246,.T.);
#153=FACE_BOUND('',#247,.T.);
#154=FACE_BOUND('',#248,.T.);
#155=FACE_BOUND('',#249,.T.);
#156=FACE_BOUND('',#250,.T.);
#157=FACE_BOUND('',#251,.T.);
#158=FACE_BOUND('',#253,.T.);
#159=FACE_BOUND('',#254,.T.);
#160=FACE_BOUND('',#255,.T.);
#161=FACE_BOUND('',#256,.T.);
#162=FACE_BOUND('',#257,.T.);
#163=FACE_BOUND('',#258,.T.);
#164=FACE_BOUND('',#260,.T.);
#165=FACE_BOUND('',#261,.T.);
#166=FACE_BOUND('',#262,.T.);
#167=FACE_BOUND('',#263,.T.);
#168=FACE_BOUND('',#264,.T.);
#169=FACE_BOUND('',#265,.T.);
#170=FACE_BOUND('',#267,.T.);
#171=FACE_BOUND('',#268,.T.);
#172=FACE_BOUND('',#269,.T.);
#173=FACE_BOUND('',#270,.T.);
#174=FACE_BOUND('',#271,.T.);
#175=FACE_BOUND('',#272,.T.);
#176=ADVANCED_FACE('CU_SU3',(#212),#205,.F.);
#177=ADVANCED_FACE('CU_SU2',(#126,#127),#118,.T.);
#178=ADVANCED_FACE('CU_SU1',(#128,#129),#106,.T.);
#179=ADVANCED_FACE('CN_EXP_Z00_N3_SU_6',(#130,#131),#119,.T.);
#180=ADVANCED_FACE('CN_EXP_Z00_N3_SU_5',(#132,#133),#107,.T.);
#181=ADVANCED_FACE('CN_EXP_Z00_N3_SU_4',(#134,#135),#104,.F.);
#182=ADVANCED_FACE('CN_EXP_Z00_N3_SU_3',(#136,#137),#120,.T.);
#183=ADVANCED_FACE('CN_EXP_Z00_N3_SU_2',(#138,#139),#105,.T.);
#184=ADVANCED_FACE('',(#140,#141),#108,.T.);
#185=ADVANCED_FACE('',(#142,#143),#121,.T.);
#186=ADVANCED_FACE('',(#144,#145,#146,#147,#148,#149),#206,.T.);
#187=ADVANCED_FACE('',(#213),#207,.T.);
#188=ADVANCED_FACE('',(#150,#151),#109,.T.);
#189=ADVANCED_FACE('',(#152,#153),#110,.T.);
#190=ADVANCED_FACE('',(#154,#155),#122,.T.);
#191=ADVANCED_FACE('',(#156,#157),#111,.T.);
#192=ADVANCED_FACE('',(#214),#208,.T.);
#193=ADVANCED_FACE('',(#158,#159),#112,.T.);
#194=ADVANCED_FACE('',(#160,#161),#123,.T.);
#195=ADVANCED_FACE('',(#162,#163),#113,.T.);
#196=ADVANCED_FACE('',(#215),#209,.T.);
#197=ADVANCED_FACE('',(#164,#165),#114,.T.);
#198=ADVANCED_FACE('',(#166,#167),#124,.T.);
#199=ADVANCED_FACE('',(#168,#169),#115,.T.);
#200=ADVANCED_FACE('',(#216),#210,.T.);
#201=ADVANCED_FACE('',(#170,#171),#116,.T.);
#202=ADVANCED_FACE('',(#172,#173),#125,.T.);
#203=ADVANCED_FACE('',(#174,#175),#117,.T.);
#204=ADVANCED_FACE('',(#217),#211,.T.);
#205=PLANE('',#416);
#206=PLANE('',#440);
#207=PLANE('',#442);
#208=PLANE('',#450);
#209=PLANE('',#457);
#210=PLANE('',#464);
#211=PLANE('',#471);
#212=FACE_OUTER_BOUND('',#218,.T.);
#213=FACE_OUTER_BOUND('',#243,.T.);
#214=FACE_OUTER_BOUND('',#252,.T.);
#215=FACE_OUTER_BOUND('',#259,.T.);
#216=FACE_OUTER_BOUND('',#266,.T.);
#217=FACE_OUTER_BOUND('',#273,.T.);
#218=EDGE_LOOP('',(#274));
#219=EDGE_LOOP('',(#275));
#220=EDGE_LOOP('',(#276));
#221=EDGE_LOOP('',(#277));
#222=EDGE_LOOP('',(#278));
#223=EDGE_LOOP('',(#279));
#224=EDGE_LOOP('',(#280));
#225=EDGE_LOOP('',(#281));
#226=EDGE_LOOP('',(#282));
#227=EDGE_LOOP('',(#283));
#228=EDGE_LOOP('',(#284));
#229=EDGE_LOOP('',(#285));
#230=EDGE_LOOP('',(#286));
#231=EDGE_LOOP('',(#287));
#232=EDGE_LOOP('',(#288));
#233=EDGE_LOOP('',(#289));
#234=EDGE_LOOP('',(#290));
#235=EDGE_LOOP('',(#291));
#236=EDGE_LOOP('',(#292));
#237=EDGE_LOOP('',(#293));
#238=EDGE_LOOP('',(#294));
#239=EDGE_LOOP('',(#295));
#240=EDGE_LOOP('',(#296));
#241=EDGE_LOOP('',(#297));
#242=EDGE_LOOP('',(#298));
#243=EDGE_LOOP('',(#299));
#244=EDGE_LOOP('',(#300));
#245=EDGE_LOOP('',(#301));
#246=EDGE_LOOP('',(#302));
#247=EDGE_LOOP('',(#303));
#248=EDGE_LOOP('',(#304));
#249=EDGE_LOOP('',(#305));
#250=EDGE_LOOP('',(#306));
#251=EDGE_LOOP('',(#307));
#252=EDGE_LOOP('',(#308));
#253=EDGE_LOOP('',(#309));
#254=EDGE_LOOP('',(#310));
#255=EDGE_LOOP('',(#311));
#256=EDGE_LOOP('',(#312));
#257=EDGE_LOOP('',(#313));
#258=EDGE_LOOP('',(#314));
#259=EDGE_LOOP('',(#315));
#260=EDGE_LOOP('',(#316));
#261=EDGE_LOOP('',(#317));
#262=EDGE_LOOP('',(#318));
#263=EDGE_LOOP('',(#319));
#264=EDGE_LOOP('',(#320));
#265=EDGE_LOOP('',(#321));
#266=EDGE_LOOP('',(#322));
#267=EDGE_LOOP('',(#323));
#268=EDGE_LOOP('',(#324));
#269=EDGE_LOOP('',(#325));
#270=EDGE_LOOP('',(#326));
#271=EDGE_LOOP('',(#327));
#272=EDGE_LOOP('',(#328));
#273=EDGE_LOOP('',(#329));
#274=ORIENTED_EDGE('',*,*,#358,.F.);
#275=ORIENTED_EDGE('',*,*,#359,.F.);
#276=ORIENTED_EDGE('',*,*,#358,.T.);
#277=ORIENTED_EDGE('',*,*,#360,.F.);
#278=ORIENTED_EDGE('',*,*,#359,.T.);
#279=ORIENTED_EDGE('',*,*,#360,.T.);
#280=ORIENTED_EDGE('',*,*,#361,.F.);
#281=ORIENTED_EDGE('',*,*,#361,.T.);
#282=ORIENTED_EDGE('',*,*,#362,.F.);
#283=ORIENTED_EDGE('',*,*,#362,.T.);
#284=ORIENTED_EDGE('',*,*,#363,.F.);
#285=ORIENTED_EDGE('',*,*,#363,.T.);
#286=ORIENTED_EDGE('',*,*,#364,.F.);
#287=ORIENTED_EDGE('',*,*,#364,.T.);
#288=ORIENTED_EDGE('',*,*,#365,.F.);
#289=ORIENTED_EDGE('',*,*,#365,.T.);
#290=ORIENTED_EDGE('',*,*,#366,.F.);
#291=ORIENTED_EDGE('',*,*,#366,.T.);
#292=ORIENTED_EDGE('',*,*,#367,.F.);
#293=ORIENTED_EDGE('',*,*,#368,.F.);
#294=ORIENTED_EDGE('',*,*,#369,.F.);
#295=ORIENTED_EDGE('',*,*,#370,.F.);
#296=ORIENTED_EDGE('',*,*,#371,.F.);
#297=ORIENTED_EDGE('',*,*,#372,.F.);
#298=ORIENTED_EDGE('',*,*,#367,.T.);
#299=ORIENTED_EDGE('',*,*,#373,.T.);
#300=ORIENTED_EDGE('',*,*,#373,.F.);
#301=ORIENTED_EDGE('',*,*,#372,.T.);
#302=ORIENTED_EDGE('',*,*,#371,.T.);
#303=ORIENTED_EDGE('',*,*,#374,.F.);
#304=ORIENTED_EDGE('',*,*,#374,.T.);
#305=ORIENTED_EDGE('',*,*,#375,.F.);
#306=ORIENTED_EDGE('',*,*,#375,.T.);
#307=ORIENTED_EDGE('',*,*,#376,.F.);
#308=ORIENTED_EDGE('',*,*,#376,.T.);
#309=ORIENTED_EDGE('',*,*,#370,.T.);
#310=ORIENTED_EDGE('',*,*,#377,.F.);
#311=ORIENTED_EDGE('',*,*,#377,.T.);
#312=ORIENTED_EDGE('',*,*,#378,.F.);
#313=ORIENTED_EDGE('',*,*,#378,.T.);
#314=ORIENTED_EDGE('',*,*,#379,.F.);
#315=ORIENTED_EDGE('',*,*,#379,.T.);
#316=ORIENTED_EDGE('',*,*,#369,.T.);
#317=ORIENTED_EDGE('',*,*,#380,.F.);
#318=ORIENTED_EDGE('',*,*,#380,.T.);
#319=ORIENTED_EDGE('',*,*,#381,.F.);
#320=ORIENTED_EDGE('',*,*,#381,.T.);
#321=ORIENTED_EDGE('',*,*,#382,.F.);
#322=ORIENTED_EDGE('',*,*,#382,.T.);
#323=ORIENTED_EDGE('',*,*,#368,.T.);
#324=ORIENTED_EDGE('',*,*,#383,.F.);
#325=ORIENTED_EDGE('',*,*,#383,.T.);
#326=ORIENTED_EDGE('',*,*,#384,.F.);
#327=ORIENTED_EDGE('',*,*,#384,.T.);
#328=ORIENTED_EDGE('',*,*,#385,.F.);
#329=ORIENTED_EDGE('',*,*,#385,.T.);
#330=VERTEX_POINT('',#590);
#331=VERTEX_POINT('',#593);
#332=VERTEX_POINT('',#596);
#333=VERTEX_POINT('',#599);
#334=VERTEX_POINT('',#602);
#335=VERTEX_POINT('',#605);
#336=VERTEX_POINT('',#608);
#337=VERTEX_POINT('',#611);
#338=VERTEX_POINT('',#614);
#339=VERTEX_POINT('',#617);
#340=VERTEX_POINT('',#620);
#341=VERTEX_POINT('',#622);
#342=VERTEX_POINT('',#624);
#343=VERTEX_POINT('',#626);
#344=VERTEX_POINT('',#628);
#345=VERTEX_POINT('',#631);
#346=VERTEX_POINT('',#635);
#347=VERTEX_POINT('',#638);
#348=VERTEX_POINT('',#641);
#349=VERTEX_POINT('',#645);
#350=VERTEX_POINT('',#648);
#351=VERTEX_POINT('',#651);
#352=VERTEX_POINT('',#655);
#353=VERTEX_POINT('',#658);
#354=VERTEX_POINT('',#661);
#355=VERTEX_POINT('',#665);
#356=VERTEX_POINT('',#668);
#357=VERTEX_POINT('',#671);
#358=EDGE_CURVE('',#330,#330,#386,.T.);
#359=EDGE_CURVE('',#331,#331,#387,.T.);
#360=EDGE_CURVE('',#332,#332,#388,.T.);
#361=EDGE_CURVE('',#333,#333,#389,.T.);
#362=EDGE_CURVE('',#334,#334,#390,.T.);
#363=EDGE_CURVE('',#335,#335,#391,.T.);
#364=EDGE_CURVE('',#336,#336,#392,.T.);
#365=EDGE_CURVE('',#337,#337,#393,.T.);
#366=EDGE_CURVE('',#338,#338,#394,.T.);
#367=EDGE_CURVE('',#339,#339,#395,.T.);
#368=EDGE_CURVE('',#340,#340,#396,.T.);
#369=EDGE_CURVE('',#341,#341,#397,.T.);
#370=EDGE_CURVE('',#342,#342,#398,.T.);
#371=EDGE_CURVE('',#343,#343,#399,.T.);
#372=EDGE_CURVE('',#344,#344,#400,.T.);
#373=EDGE_CURVE('',#345,#345,#401,.T.);
#374=EDGE_CURVE('',#346,#346,#402,.T.);
#375=EDGE_CURVE('',#347,#347,#403,.T.);
#376=EDGE_CURVE('',#348,#348,#404,.T.);
#377=EDGE_CURVE('',#349,#349,#405,.T.);
#378=EDGE_CURVE('',#350,#350,#406,.T.);
#379=EDGE_CURVE('',#351,#351,#407,.T.);
#380=EDGE_CURVE('',#352,#352,#408,.T.);
#381=EDGE_CURVE('',#353,#353,#409,.T.);
#382=EDGE_CURVE('',#354,#354,#410,.T.);
#383=EDGE_CURVE('',#355,#355,#411,.T.);
#384=EDGE_CURVE('',#356,#356,#412,.T.);
#385=EDGE_CURVE('',#357,#357,#413,.T.);
#386=CIRCLE('',#415,11.19675);
#387=CIRCLE('',#417,12.69675);
#388=CIRCLE('',#419,12.69675);
#389=CIRCLE('',#421,12.55);
#390=CIRCLE('',#423,12.55);
#391=CIRCLE('',#425,13.2911809548975);
#392=CIRCLE('',#427,24.2588190451025);
#393=CIRCLE('',#429,25.0);
#394=CIRCLE('',#431,25.0);
#395=CIRCLE('',#433,24.7);
#396=CIRCLE('',#435,2.497);
#397=CIRCLE('',#436,2.497);
#398=CIRCLE('',#437,2.497);
#399=CIRCLE('',#438,2.497);
#400=CIRCLE('',#439,12.69675);
#401=CIRCLE('',#441,12.69675);
#402=CIRCLE('',#444,2.497);
#403=CIRCLE('',#446,4.0);
#404=CIRCLE('',#448,4.0);
#405=CIRCLE('',#451,2.497);
#406=CIRCLE('',#453,4.0);
#407=CIRCLE('',#455,4.0);
#408=CIRCLE('',#458,2.497);
#409=CIRCLE('',#460,4.0);
#410=CIRCLE('',#462,4.0);
#411=CIRCLE('',#465,2.497);
#412=CIRCLE('',#467,4.0);
#413=CIRCLE('',#469,4.0);
#414=AXIS2_PLACEMENT_3D('',#588,#472,#473);
#415=AXIS2_PLACEMENT_3D('',#589,#474,#475);
#416=AXIS2_PLACEMENT_3D('',#591,#476,#477);
#417=AXIS2_PLACEMENT_3D('',#592,#478,#479);
#418=AXIS2_PLACEMENT_3D('',#594,#480,#481);
#419=AXIS2_PLACEMENT_3D('',#595,#482,#483);
#420=AXIS2_PLACEMENT_3D('',#597,#484,#485);
#421=AXIS2_PLACEMENT_3D('',#598,#486,#487);
#422=AXIS2_PLACEMENT_3D('',#600,#488,#489);
#423=AXIS2_PLACEMENT_3D('',#601,#490,#491);
#424=AXIS2_PLACEMENT_3D('',#603,#492,#493);
#425=AXIS2_PLACEMENT_3D('',#604,#494,#495);
#426=AXIS2_PLACEMENT_3D('',#606,#496,#497);
#427=AXIS2_PLACEMENT_3D('',#607,#498,#499);
#428=AXIS2_PLACEMENT_3D('',#609,#500,#501);
#429=AXIS2_PLACEMENT_3D('',#610,#502,#503);
#430=AXIS2_PLACEMENT_3D('',#612,#504,#505);
#431=AXIS2_PLACEMENT_3D('',#613,#506,#507);
#432=AXIS2_PLACEMENT_3D('',#615,#508,#509);
#433=AXIS2_PLACEMENT_3D('',#616,#510,#511);
#434=AXIS2_PLACEMENT_3D('',#618,#512,#513);
#435=AXIS2_PLACEMENT_3D('',#619,#514,#515);
#436=AXIS2_PLACEMENT_3D('',#621,#516,#517);
#437=AXIS2_PLACEMENT_3D('',#623,#518,#519);
#438=AXIS2_PLACEMENT_3D('',#625,#520,#521);
#439=AXIS2_PLACEMENT_3D('',#627,#522,#523);
#440=AXIS2_PLACEMENT_3D('',#629,#524,#525);
#441=AXIS2_PLACEMENT_3D('',#630,#526,#527);
#442=AXIS2_PLACEMENT_3D('',#632,#528,#529);
#443=AXIS2_PLACEMENT_3D('',#633,#530,#531);
#444=AXIS2_PLACEMENT_3D('',#634,#532,#533);
#445=AXIS2_PLACEMENT_3D('',#636,#534,#535);
#446=AXIS2_PLACEMENT_3D('',#637,#536,#537);
#447=AXIS2_PLACEMENT_3D('',#639,#538,#539);
#448=AXIS2_PLACEMENT_3D('',#640,#540,#541);
#449=AXIS2_PLACEMENT_3D('',#642,#542,#543);
#450=AXIS2_PLACEMENT_3D('',#643,#544,#545);
#451=AXIS2_PLACEMENT_3D('',#644,#546,#547);
#452=AXIS2_PLACEMENT_3D('',#646,#548,#549);
#453=AXIS2_PLACEMENT_3D('',#647,#550,#551);
#454=AXIS2_PLACEMENT_3D('',#649,#552,#553);
#455=AXIS2_PLACEMENT_3D('',#650,#554,#555);
#456=AXIS2_PLACEMENT_3D('',#652,#556,#557);
#457=AXIS2_PLACEMENT_3D('',#653,#558,#559);
#458=AXIS2_PLACEMENT_3D('',#654,#560,#561);
#459=AXIS2_PLACEMENT_3D('',#656,#562,#563);
#460=AXIS2_PLACEMENT_3D('',#657,#564,#565);
#461=AXIS2_PLACEMENT_3D('',#659,#566,#567);
#462=AXIS2_PLACEMENT_3D('',#660,#568,#569);
#463=AXIS2_PLACEMENT_3D('',#662,#570,#571);
#464=AXIS2_PLACEMENT_3D('',#663,#572,#573);
#465=AXIS2_PLACEMENT_3D('',#664,#574,#575);
#466=AXIS2_PLACEMENT_3D('',#666,#576,#577);
#467=AXIS2_PLACEMENT_3D('',#667,#578,#579);
#468=AXIS2_PLACEMENT_3D('',#669,#580,#581);
#469=AXIS2_PLACEMENT_3D('',#670,#582,#583);
#470=AXIS2_PLACEMENT_3D('',#672,#584,#585);
#471=AXIS2_PLACEMENT_3D('',#673,#586,#587);
#472=DIRECTION('',(0.0,0.0,1.0));
#473=DIRECTION('',(1.0,0.0,0.0));
#474=DIRECTION('',(0.0,0.0,-1.0));
#475=DIRECTION('',(1.0,0.0,0.0));
#476=DIRECTION('',(0.0,0.0,-1.0));
#477=DIRECTION('',(1.0,0.0,0.0));
#478=DIRECTION('',(0.0,0.0,-1.0));
#479=DIRECTION('',(1.0,0.0,0.0));
#480=DIRECTION('',(0.0,0.0,-1.0));
#481=DIRECTION('',(1.0,0.0,0.0));
#482=DIRECTION('',(0.0,0.0,-1.0));
#483=DIRECTION('',(1.0,0.0,0.0));
#484=DIRECTION('',(0.0,0.0,-1.0));
#485=DIRECTION('',(1.0,0.0,0.0));
#486=DIRECTION('',(0.0,0.0,-1.0));
#487=DIRECTION('',(1.0,0.0,0.0));
#488=DIRECTION('',(0.0,0.0,1.0));
#489=DIRECTION('',(-1.0,0.0,4.70513018306625E-17));
#490=DIRECTION('',(0.0,0.0,-1.0));
#491=DIRECTION('',(1.0,0.0,0.0));
#492=DIRECTION('',(0.0,0.0,-1.0));
#493=DIRECTION('',(1.0,0.0,0.0));
#494=DIRECTION('',(0.0,0.0,-1.0));
#495=DIRECTION('',(1.0,0.0,0.0));
#496=DIRECTION('',(0.0,0.0,-1.0));
#497=DIRECTION('',(1.0,0.0,0.0));
#498=DIRECTION('',(0.0,0.0,-1.0));
#499=DIRECTION('',(1.0,0.0,0.0));
#500=DIRECTION('',(0.0,0.0,-1.0));
#501=DIRECTION('',(1.0,0.0,-1.47781085025455E-17));
#502=DIRECTION('',(0.0,0.0,-1.0));
#503=DIRECTION('',(1.0,0.0,0.0));
#504=DIRECTION('',(0.0,0.0,-1.0));
#505=DIRECTION('',(1.0,0.0,0.0));
#506=DIRECTION('',(0.0,0.0,-1.0));
#507=DIRECTION('',(1.0,0.0,0.0));
#508=DIRECTION('',(0.0,0.0,-1.0));
#509=DIRECTION('',(1.0,0.0,0.0));
#510=DIRECTION('',(0.0,0.0,-1.0));
#511=DIRECTION('',(1.0,0.0,0.0));
#512=DIRECTION('',(0.0,0.0,1.0));
#513=DIRECTION('',(-1.0,0.0,2.70865381239672E-17));
#514=DIRECTION('',(0.0,0.0,-1.0));
#515=DIRECTION('',(1.0,0.0,0.0));
#516=DIRECTION('',(0.0,0.0,-1.0));
#517=DIRECTION('',(1.0,0.0,0.0));
#518=DIRECTION('',(0.0,0.0,-1.0));
#519=DIRECTION('',(1.0,0.0,0.0));
#520=DIRECTION('',(0.0,0.0,-1.0));
#521=DIRECTION('',(1.0,0.0,0.0));
#522=DIRECTION('',(0.0,0.0,-1.0));
#523=DIRECTION('',(1.0,0.0,0.0));
#524=DIRECTION('',(0.0,0.0,-1.0));
#525=DIRECTION('',(1.0,0.0,0.0));
#526=DIRECTION('',(0.0,0.0,-1.0));
#527=DIRECTION('',(1.0,0.0,0.0));
#528=DIRECTION('',(0.0,0.0,-1.0));
#529=DIRECTION('',(1.0,0.0,0.0));
#530=DIRECTION('',(0.0,0.0,-1.0));
#531=DIRECTION('',(1.0,0.0,0.0));
#532=DIRECTION('',(0.0,0.0,-1.0));
#533=DIRECTION('',(1.0,0.0,0.0));
#534=DIRECTION('',(0.0,0.0,-1.0));
#535=DIRECTION('',(0.0,1.0,0.0));
#536=DIRECTION('',(0.0,0.0,-1.0));
#537=DIRECTION('',(0.0,1.0,0.0));
#538=DIRECTION('',(0.0,0.0,-1.0));
#539=DIRECTION('',(0.0,1.0,-5.52899912661931E-17));
#540=DIRECTION('',(0.0,0.0,-1.0));
#541=DIRECTION('',(0.0,1.0,0.0));
#542=DIRECTION('',(0.0,0.0,-1.0));
#543=DIRECTION('',(0.0,1.0,0.0));
#544=DIRECTION('',(0.0,0.0,-1.0));
#545=DIRECTION('',(0.0,1.0,0.0));
#546=DIRECTION('',(0.0,0.0,-1.0));
#547=DIRECTION('',(1.0,0.0,0.0));
#548=DIRECTION('',(0.0,0.0,-1.0));
#549=DIRECTION('',(-1.0,0.0,0.0));
#550=DIRECTION('',(0.0,0.0,-1.0));
#551=DIRECTION('',(-1.0,0.0,0.0));
#552=DIRECTION('',(0.0,0.0,-1.0));
#553=DIRECTION('',(-1.0,0.0,-5.52899912661931E-17));
#554=DIRECTION('',(0.0,0.0,-1.0));
#555=DIRECTION('',(-1.0,0.0,0.0));
#556=DIRECTION('',(0.0,0.0,-1.0));
#557=DIRECTION('',(-1.0,0.0,0.0));
#558=DIRECTION('',(0.0,0.0,-1.0));
#559=DIRECTION('',(-1.0,0.0,0.0));
#560=DIRECTION('',(0.0,0.0,-1.0));
#561=DIRECTION('',(1.0,0.0,0.0));
#562=DIRECTION('',(0.0,0.0,-1.0));
#563=DIRECTION('',(0.0,-1.0,0.0));
#564=DIRECTION('',(0.0,0.0,-1.0));
#565=DIRECTION('',(0.0,-1.0,0.0));
#566=DIRECTION('',(0.0,0.0,-1.0));
#567=DIRECTION('',(0.0,-1.0,-5.52899912661931E-17));
#568=DIRECTION('',(0.0,0.0,-1.0));
#569=DIRECTION('',(0.0,-1.0,0.0));
#570=DIRECTION('',(0.0,0.0,-1.0));
#571=DIRECTION('',(0.0,-1.0,0.0));
#572=DIRECTION('',(0.0,0.0,-1.0));
#573=DIRECTION('',(0.0,-1.0,0.0));
#574=DIRECTION('',(0.0,0.0,-1.0));
#575=DIRECTION('',(1.0,0.0,0.0));
#576=DIRECTION('',(0.0,0.0,-1.0));
#577=DIRECTION('',(1.0,0.0,0.0));
#578=DIRECTION('',(0.0,0.0,-1.0));
#579=DIRECTION('',(1.0,0.0,0.0));
#580=DIRECTION('',(0.0,0.0,-1.0));
#581=DIRECTION('',(1.0,0.0,-5.52899912661931E-17));
#582=DIRECTION('',(0.0,0.0,-1.0));
#583=DIRECTION('',(1.0,0.0,0.0));
#584=DIRECTION('',(0.0,0.0,-1.0));
#585=DIRECTION('',(1.0,0.0,0.0));
#586=DIRECTION('',(0.0,0.0,-1.0));
#587=DIRECTION('',(1.0,0.0,0.0));
#588=CARTESIAN_POINT('',(0.0,0.0,0.0));
#589=CARTESIAN_POINT('',(0.0,0.0,0.0));
#590=CARTESIAN_POINT('',(11.19675,0.0,0.0));
#591=CARTESIAN_POINT('',(0.0,0.0,0.0));
#592=CARTESIAN_POINT('',(0.0,0.0,-1.5));
#593=CARTESIAN_POINT('',(12.69675,0.0,-1.5));
#594=CARTESIAN_POINT('',(0.0,0.0,0.0));
#595=CARTESIAN_POINT('',(0.0,0.0,-57.94));
#596=CARTESIAN_POINT('',(12.69675,0.0,-57.94));
#597=CARTESIAN_POINT('',(0.0,0.0,66.0749858115762));
#598=CARTESIAN_POINT('',(0.0,0.0,-58.1941784560107));
#599=CARTESIAN_POINT('',(12.55,0.0,-58.1941784560107));
#600=CARTESIAN_POINT('',(0.0,0.0,-58.1941784560107));
#601=CARTESIAN_POINT('',(0.0,0.0,-59.94));
#602=CARTESIAN_POINT('',(12.55,0.0,-59.94));
#603=CARTESIAN_POINT('',(0.0,0.0,15.401925));
#604=CARTESIAN_POINT('',(0.0,0.0,-60.9059258262891));
#605=CARTESIAN_POINT('',(13.2911809548975,0.0,-60.9059258262891));
#606=CARTESIAN_POINT('',(0.0,0.0,-59.94));
#607=CARTESIAN_POINT('',(0.0,0.0,-63.8446955954363));
#608=CARTESIAN_POINT('',(24.2588190451025,0.0,-63.8446955954363));
#609=CARTESIAN_POINT('',(0.0,0.0,-63.8446955954363));
#610=CARTESIAN_POINT('',(0.0,0.0,-64.8106214217254));
#611=CARTESIAN_POINT('',(25.0,0.0,-64.8106214217254));
#612=CARTESIAN_POINT('',(0.0,0.0,-64.8106214217254));
#613=CARTESIAN_POINT('',(0.0,0.0,-99.7));
#614=CARTESIAN_POINT('',(25.0,0.0,-99.7));
#615=CARTESIAN_POINT('',(0.0,0.0,15.401925));
#616=CARTESIAN_POINT('',(0.0,0.0,-100.0));
#617=CARTESIAN_POINT('',(24.7,0.0,-100.0));
#618=CARTESIAN_POINT('',(0.0,0.0,-100.0));
#619=CARTESIAN_POINT('',(-12.7279220613578,12.7279220613578,-100.0));
#620=CARTESIAN_POINT('',(-10.2309220613578,12.7279220613578,-100.0));
#621=CARTESIAN_POINT('',(12.7279220613578,12.7279220613579,-100.0));
#622=CARTESIAN_POINT('',(15.2249220613578,12.7279220613579,-100.0));
#623=CARTESIAN_POINT('',(12.7279220613579,-12.7279220613578,-100.0));
#624=CARTESIAN_POINT('',(15.2249220613579,-12.7279220613578,-100.0));
#625=CARTESIAN_POINT('',(-12.7279220613578,-12.7279220613579,-100.0));
#626=CARTESIAN_POINT('',(-10.2309220613578,-12.7279220613579,-100.0));
#627=CARTESIAN_POINT('',(0.0,0.0,-100.0));
#628=CARTESIAN_POINT('',(12.69675,0.0,-100.0));
#629=CARTESIAN_POINT('',(12.69675,0.0,-100.0));
#630=CARTESIAN_POINT('',(0.0,0.0,-102.4));
#631=CARTESIAN_POINT('',(12.69675,0.0,-102.4));
#632=CARTESIAN_POINT('',(0.0,0.0,-102.4));
#633=CARTESIAN_POINT('',(0.0,0.0,-83.86465));
#634=CARTESIAN_POINT('',(-12.7279220613578,-12.7279220613579,-100.797));
#635=CARTESIAN_POINT('',(-10.2309220613578,-12.7279220613579,-100.797));
#636=CARTESIAN_POINT('',(-12.7279220613578,-12.7279220613579,-98.4));
#637=CARTESIAN_POINT('',(-12.7279220613578,-12.7279220613579,-102.3));
#638=CARTESIAN_POINT('',(-12.7279220613578,-8.7279220613579,-102.3));
#639=CARTESIAN_POINT('',(-12.7279220613578,-12.7279220613579,-102.3));
#640=CARTESIAN_POINT('',(-12.7279220613578,-12.7279220613579,-102.4));
#641=CARTESIAN_POINT('',(-12.7279220613578,-8.7279220613579,-102.4));
#642=CARTESIAN_POINT('',(-12.7279220613578,-12.7279220613579,-98.4));
#643=CARTESIAN_POINT('',(-12.7279220613578,-12.7279220613579,-102.4));
#644=CARTESIAN_POINT('',(12.7279220613579,-12.7279220613578,-100.797));
#645=CARTESIAN_POINT('',(15.2249220613579,-12.7279220613578,-100.797));
#646=CARTESIAN_POINT('',(12.7279220613579,-12.7279220613578,-98.4));
#647=CARTESIAN_POINT('',(12.7279220613579,-12.7279220613578,-102.3));
#648=CARTESIAN_POINT('',(8.72792206135788,-12.7279220613578,-102.3));
#649=CARTESIAN_POINT('',(12.7279220613579,-12.7279220613578,-102.3));
#650=CARTESIAN_POINT('',(12.7279220613579,-12.7279220613578,-102.4));
#651=CARTESIAN_POINT('',(8.72792206135788,-12.7279220613578,-102.4));
#652=CARTESIAN_POINT('',(12.7279220613579,-12.7279220613578,-98.4));
#653=CARTESIAN_POINT('',(12.7279220613579,-12.7279220613578,-102.4));
#654=CARTESIAN_POINT('',(12.7279220613578,12.7279220613579,-100.797));
#655=CARTESIAN_POINT('',(15.2249220613578,12.7279220613579,-100.797));
#656=CARTESIAN_POINT('',(12.7279220613578,12.7279220613579,-98.4));
#657=CARTESIAN_POINT('',(12.7279220613578,12.7279220613579,-102.3));
#658=CARTESIAN_POINT('',(12.7279220613578,8.72792206135786,-102.3));
#659=CARTESIAN_POINT('',(12.7279220613578,12.7279220613579,-102.3));
#660=CARTESIAN_POINT('',(12.7279220613578,12.7279220613579,-102.4));
#661=CARTESIAN_POINT('',(12.7279220613578,8.72792206135786,-102.4));
#662=CARTESIAN_POINT('',(12.7279220613578,12.7279220613579,-98.4));
#663=CARTESIAN_POINT('',(12.7279220613578,12.7279220613579,-102.4));
#664=CARTESIAN_POINT('',(-12.7279220613578,12.7279220613578,-100.797));
#665=CARTESIAN_POINT('',(-10.2309220613578,12.7279220613578,-100.797));
#666=CARTESIAN_POINT('',(-12.7279220613578,12.7279220613578,-98.4));
#667=CARTESIAN_POINT('',(-12.7279220613578,12.7279220613578,-102.3));
#668=CARTESIAN_POINT('',(-8.72792206135784,12.7279220613578,-102.3));
#669=CARTESIAN_POINT('',(-12.7279220613578,12.7279220613578,-102.3));
#670=CARTESIAN_POINT('',(-12.7279220613578,12.7279220613578,-102.4));
#671=CARTESIAN_POINT('',(-8.72792206135784,12.7279220613578,-102.4));
#672=CARTESIAN_POINT('',(-12.7279220613578,12.7279220613578,-98.4));
#673=CARTESIAN_POINT('',(-12.7279220613578,12.7279220613578,-102.4));
#674=MECHANICAL_DESIGN_GEOMETRIC_PRESENTATION_REPRESENTATION('',(#94),#675);
#675=(GEOMETRIC_REPRESENTATION_CONTEXT(3)GLOBAL_UNCERTAINTY_ASSIGNED_CONTEXT((#676))
     GLOBAL_UNIT_ASSIGNED_CONTEXT((#682,#678,#677))REPRESENTATION_CONTEXT('3468_1_3D',
     'TOP_LEVEL_ASSEMBLY_PART'));
#676=UNCERTAINTY_MEASURE_WITH_UNIT(LENGTH_MEASURE(2.0E-5),#682,'DISTANCE_ACCURACY_VALUE',
     'Maximum Tolerance applied to model');
#677=(NAMED_UNIT(*)SI_UNIT($,.STERADIAN.)SOLID_ANGLE_UNIT());
#678=(CONVERSION_BASED_UNIT('DEGREE',#680)NAMED_UNIT(*)PLANE_ANGLE_UNIT());
#679=DIMENSIONAL_EXPONENTS(0.0,0.0,0.0,0.0,0.0,0.0,0.0);
#680=PLANE_ANGLE_MEASURE_WITH_UNIT(PLANE_ANGLE_MEASURE(0.0174532925),#681);
#681=(NAMED_UNIT(*)PLANE_ANGLE_UNIT()SI_UNIT($,.RADIAN.));
#682=(LENGTH_UNIT()NAMED_UNIT(*)SI_UNIT(.MILLI.,.METRE.));
#683=CARTESIAN_POINT('',(0.0,0.0,0.0));
#684=DIRECTION('',(0.0,0.0,1.0));
#685=DIRECTION('',(1.0,0.0,0.0));
#686=AXIS2_PLACEMENT_3D('PCS',#683,#684,#685);
#687=CARTESIAN_POINT('',(0.0,0.0,-58.0));
#688=DIRECTION('',(0.0,0.0,1.0));
#689=DIRECTION('',(1.0,0.0,0.0));
#690=AXIS2_PLACEMENT_3D('MCS',#687,#688,#689);
#691=CARTESIAN_POINT('',(0.0,0.0,-100.0));
#692=DIRECTION('',(0.0,0.0,1.0));
#693=DIRECTION('',(1.0,0.0,0.0));
#694=AXIS2_PLACEMENT_3D('CSW',#691,#692,#693);
#695=CONSTRUCTIVE_GEOMETRY_REPRESENTATION('supplemental geometry',(#686,#690,#694),
     #675);
#696=CONSTRUCTIVE_GEOMETRY_REPRESENTATION_RELATIONSHIP('supplemental geometry',$,
     #92,#695);
ENDSEC;
END-ISO-10303-21;
