ISO-10303-21;
HEADER;
FILE_DESCRIPTION(
/* description */ ('3-D model version:1'),
/* implementation_level */ '2;1');
FILE_NAME(
/* name */ 'C6-391.32-16112',
/* time_stamp */ '2016-12-02T14:02:04',
/* author */ ('InteractiveCad'),
/* organization */ ('AB Sandvik Coromant'),
/* preprocessor_version */ 'ST-DEVELOPER v11',
/* originating_system */ 'SIEMENS UGS NX 6.0',
/* authorization */ '');
FILE_SCHEMA(('AUTOMOTIVE_DESIGN'));
ENDSEC;
DATA;
#10=SHAPE_REPRESENTATION_RELATIONSHIP('None','relationship between ds681089vfm8-None and ds681089vfm8-None',
     #22,#11);
#11=ADVANCED_BREP_SHAPE_REPRESENTATION('ds681089vfm8-None',(#32),#577);
#12=SHAPE_DEFINITION_REPRESENTATION(#13,#22);
#13=PRODUCT_DEFINITION_SHAPE('','',#14);
#14=PRODUCT_DEFINITION(' ','',#16,#15);
#15=PRODUCT_DEFINITION_CONTEXT('part definition',#21,'design');
#16=PRODUCT_DEFINITION_FORMATION_WITH_SPECIFIED_SOURCE(' ',' ',#18,.NOT_KNOWN.);
#17=PRODUCT_RELATED_PRODUCT_CATEGORY('part','',(#18));
#18=PRODUCT('ds681089vfm8','ds681089vfm8',' ',(#19));
#19=PRODUCT_CONTEXT(' ',#21,'mechanical');
#20=APPLICATION_PROTOCOL_DEFINITION('international standard','automotive_design',
     2001,#21);
#21=APPLICATION_CONTEXT('core data for automotive mechanical design processes');
#22=SHAPE_REPRESENTATION('ds681089vfm8-None',(#324),#577);
#23=PRESENTATION_LAYER_ASSIGNMENT('1','Layer 1',(#32));
#24=STYLED_ITEM('',(#25),#32);
#25=PRESENTATION_STYLE_ASSIGNMENT((#26));
#26=SURFACE_STYLE_USAGE(.BOTH.,#27);
#27=SURFACE_SIDE_STYLE('',(#28));
#28=SURFACE_STYLE_FILL_AREA(#29);
#29=FILL_AREA_STYLE('',(#30));
#30=FILL_AREA_STYLE_COLOUR('',#31);
#31=COLOUR_RGB('Medium Gray',0.490196078431373,0.490196078431373,0.490196078431373);
#32=MANIFOLD_SOLID_BREP('NOCUT',#33);
#33=CLOSED_SHELL('',(#88,#89,#90,#91,#92,#93,#94,#95,#96,#97,#98,#99,#100,#101,#102,
     #103,#104,#105,#106,#107,#108,#109));
#34=B_SPLINE_CURVE_WITH_KNOTS('',3,(#551,#552,#553,#554),.UNSPECIFIED.,.F.,.F.,
     (4,4),(0.0,1.0),.UNSPECIFIED.);
#35=B_SPLINE_CURVE_WITH_KNOTS('',3,(#559,#560,#561,#562),.UNSPECIFIED.,.F.,.F.,
     (4,4),(0.0,1.0),.UNSPECIFIED.);
#36=LINE('',#533,#42);
#37=LINE('',#537,#43);
#38=LINE('',#541,#44);
#39=LINE('',#545,#45);
#40=LINE('',#549,#46);
#41=LINE('',#566,#47);
#42=VECTOR('',#439,1.0);
#43=VECTOR('',#442,1.0);
#44=VECTOR('',#447,1.0);
#45=VECTOR('',#452,1.0);
#46=VECTOR('',#457,1.0);
#47=VECTOR('',#464,1.0);
#48=TOROIDAL_SURFACE('',#340,27.5,2.5);
#49=TOROIDAL_SURFACE('',#344,27.5,2.5);
#50=CYLINDRICAL_SURFACE('',#334,28.5);
#51=CYLINDRICAL_SURFACE('',#342,25.0);
#52=CYLINDRICAL_SURFACE('',#348,31.5);
#53=CYLINDRICAL_SURFACE('',#374,6.0);
#54=CONICAL_SURFACE('',#328,7.81617859440279,20.0);
#55=CONICAL_SURFACE('',#332,18.3088334405463,20.0000000000001);
#56=CONICAL_SURFACE('',#338,28.4352341016783,30.0);
#57=CONICAL_SURFACE('',#346,26.25,59.9999999999998);
#58=CONICAL_SURFACE('',#357,36.0,1.43916666666667);
#59=CONICAL_SURFACE('',#359,15.0,1.43916666666667);
#60=CONICAL_SURFACE('',#361,36.0,1.43916666666667);
#61=CONICAL_SURFACE('',#363,15.0,1.43916666666667);
#62=CONICAL_SURFACE('',#367,36.0,1.43916666666667);
#63=CONICAL_SURFACE('',#369,15.0,1.43916666666667);
#64=FACE_BOUND('',#127,.T.);
#65=FACE_BOUND('',#128,.T.);
#66=FACE_BOUND('',#129,.T.);
#67=FACE_BOUND('',#130,.T.);
#68=FACE_BOUND('',#131,.T.);
#69=FACE_BOUND('',#132,.T.);
#70=FACE_BOUND('',#133,.T.);
#71=FACE_BOUND('',#134,.T.);
#72=FACE_BOUND('',#135,.T.);
#73=FACE_BOUND('',#136,.T.);
#74=FACE_BOUND('',#137,.T.);
#75=FACE_BOUND('',#138,.T.);
#76=FACE_BOUND('',#139,.T.);
#77=FACE_BOUND('',#140,.T.);
#78=FACE_BOUND('',#141,.T.);
#79=FACE_BOUND('',#142,.T.);
#80=FACE_BOUND('',#143,.T.);
#81=FACE_BOUND('',#144,.T.);
#82=FACE_BOUND('',#145,.T.);
#83=FACE_BOUND('',#146,.T.);
#84=FACE_BOUND('',#147,.T.);
#85=FACE_BOUND('',#148,.T.);
#86=FACE_BOUND('',#149,.T.);
#87=FACE_BOUND('',#150,.T.);
#88=ADVANCED_FACE('',(#116),#110,.F.);
#89=ADVANCED_FACE('',(#64,#65),#54,.T.);
#90=ADVANCED_FACE('',(#66,#67),#111,.F.);
#91=ADVANCED_FACE('',(#68,#69),#55,.T.);
#92=ADVANCED_FACE('',(#70,#71),#50,.T.);
#93=ADVANCED_FACE('',(#72,#73),#112,.F.);
#94=ADVANCED_FACE('',(#74,#75),#56,.T.);
#95=ADVANCED_FACE('',(#76,#77),#48,.F.);
#96=ADVANCED_FACE('',(#78,#79),#51,.T.);
#97=ADVANCED_FACE('',(#80,#81),#49,.F.);
#98=ADVANCED_FACE('',(#82,#83),#57,.T.);
#99=ADVANCED_FACE('',(#84,#85),#52,.T.);
#100=ADVANCED_FACE('',(#86,#87),#113,.F.);
#101=ADVANCED_FACE('',(#117),#58,.T.);
#102=ADVANCED_FACE('',(#118),#59,.T.);
#103=ADVANCED_FACE('',(#119),#60,.T.);
#104=ADVANCED_FACE('',(#120),#61,.T.);
#105=ADVANCED_FACE('',(#121),#62,.T.);
#106=ADVANCED_FACE('',(#122),#63,.T.);
#107=ADVANCED_FACE('',(#123),#114,.F.);
#108=ADVANCED_FACE('',(#124),#115,.F.);
#109=ADVANCED_FACE('',(#125),#53,.F.);
#110=PLANE('',#326);
#111=PLANE('',#330);
#112=PLANE('',#336);
#113=PLANE('',#355);
#114=PLANE('',#371);
#115=PLANE('',#373);
#116=FACE_OUTER_BOUND('',#126,.T.);
#117=FACE_OUTER_BOUND('',#151,.T.);
#118=FACE_OUTER_BOUND('',#152,.T.);
#119=FACE_OUTER_BOUND('',#153,.T.);
#120=FACE_OUTER_BOUND('',#154,.T.);
#121=FACE_OUTER_BOUND('',#155,.T.);
#122=FACE_OUTER_BOUND('',#156,.T.);
#123=FACE_OUTER_BOUND('',#157,.T.);
#124=FACE_OUTER_BOUND('',#158,.T.);
#125=FACE_OUTER_BOUND('',#159,.T.);
#126=EDGE_LOOP('',(#160));
#127=EDGE_LOOP('',(#161));
#128=EDGE_LOOP('',(#162));
#129=EDGE_LOOP('',(#163));
#130=EDGE_LOOP('',(#164));
#131=EDGE_LOOP('',(#165));
#132=EDGE_LOOP('',(#166));
#133=EDGE_LOOP('',(#167));
#134=EDGE_LOOP('',(#168));
#135=EDGE_LOOP('',(#169));
#136=EDGE_LOOP('',(#170));
#137=EDGE_LOOP('',(#171));
#138=EDGE_LOOP('',(#172));
#139=EDGE_LOOP('',(#173));
#140=EDGE_LOOP('',(#174));
#141=EDGE_LOOP('',(#175));
#142=EDGE_LOOP('',(#176));
#143=EDGE_LOOP('',(#177));
#144=EDGE_LOOP('',(#178));
#145=EDGE_LOOP('',(#179));
#146=EDGE_LOOP('',(#180));
#147=EDGE_LOOP('',(#181));
#148=EDGE_LOOP('',(#182));
#149=EDGE_LOOP('',(#183,#184,#185,#186,#187,#188));
#150=EDGE_LOOP('',(#189));
#151=EDGE_LOOP('',(#190,#191,#192,#193));
#152=EDGE_LOOP('',(#194,#195,#196,#197));
#153=EDGE_LOOP('',(#198,#199,#200,#201));
#154=EDGE_LOOP('',(#202,#203,#204,#205));
#155=EDGE_LOOP('',(#206,#207,#208,#209,#210,#211,#212,#213));
#156=EDGE_LOOP('',(#214,#215,#216,#217));
#157=EDGE_LOOP('',(#218,#219,#220,#221,#222,#223,#224,#225));
#158=EDGE_LOOP('',(#226,#227));
#159=EDGE_LOOP('',(#228,#229,#230,#231));
#160=ORIENTED_EDGE('',*,*,#260,.F.);
#161=ORIENTED_EDGE('',*,*,#261,.F.);
#162=ORIENTED_EDGE('',*,*,#260,.T.);
#163=ORIENTED_EDGE('',*,*,#262,.F.);
#164=ORIENTED_EDGE('',*,*,#261,.T.);
#165=ORIENTED_EDGE('',*,*,#263,.F.);
#166=ORIENTED_EDGE('',*,*,#262,.T.);
#167=ORIENTED_EDGE('',*,*,#264,.F.);
#168=ORIENTED_EDGE('',*,*,#263,.T.);
#169=ORIENTED_EDGE('',*,*,#265,.F.);
#170=ORIENTED_EDGE('',*,*,#264,.T.);
#171=ORIENTED_EDGE('',*,*,#266,.F.);
#172=ORIENTED_EDGE('',*,*,#265,.T.);
#173=ORIENTED_EDGE('',*,*,#267,.F.);
#174=ORIENTED_EDGE('',*,*,#266,.T.);
#175=ORIENTED_EDGE('',*,*,#268,.F.);
#176=ORIENTED_EDGE('',*,*,#267,.T.);
#177=ORIENTED_EDGE('',*,*,#269,.F.);
#178=ORIENTED_EDGE('',*,*,#268,.T.);
#179=ORIENTED_EDGE('',*,*,#270,.F.);
#180=ORIENTED_EDGE('',*,*,#269,.T.);
#181=ORIENTED_EDGE('',*,*,#271,.F.);
#182=ORIENTED_EDGE('',*,*,#270,.T.);
#183=ORIENTED_EDGE('',*,*,#272,.T.);
#184=ORIENTED_EDGE('',*,*,#273,.T.);
#185=ORIENTED_EDGE('',*,*,#274,.T.);
#186=ORIENTED_EDGE('',*,*,#275,.T.);
#187=ORIENTED_EDGE('',*,*,#276,.T.);
#188=ORIENTED_EDGE('',*,*,#277,.T.);
#189=ORIENTED_EDGE('',*,*,#271,.T.);
#190=ORIENTED_EDGE('',*,*,#275,.F.);
#191=ORIENTED_EDGE('',*,*,#278,.F.);
#192=ORIENTED_EDGE('',*,*,#279,.T.);
#193=ORIENTED_EDGE('',*,*,#280,.T.);
#194=ORIENTED_EDGE('',*,*,#276,.F.);
#195=ORIENTED_EDGE('',*,*,#280,.F.);
#196=ORIENTED_EDGE('',*,*,#281,.T.);
#197=ORIENTED_EDGE('',*,*,#282,.T.);
#198=ORIENTED_EDGE('',*,*,#277,.F.);
#199=ORIENTED_EDGE('',*,*,#282,.F.);
#200=ORIENTED_EDGE('',*,*,#283,.T.);
#201=ORIENTED_EDGE('',*,*,#284,.T.);
#202=ORIENTED_EDGE('',*,*,#272,.F.);
#203=ORIENTED_EDGE('',*,*,#284,.F.);
#204=ORIENTED_EDGE('',*,*,#285,.T.);
#205=ORIENTED_EDGE('',*,*,#286,.T.);
#206=ORIENTED_EDGE('',*,*,#287,.F.);
#207=ORIENTED_EDGE('',*,*,#288,.F.);
#208=ORIENTED_EDGE('',*,*,#289,.F.);
#209=ORIENTED_EDGE('',*,*,#290,.T.);
#210=ORIENTED_EDGE('',*,*,#291,.T.);
#211=ORIENTED_EDGE('',*,*,#273,.F.);
#212=ORIENTED_EDGE('',*,*,#286,.F.);
#213=ORIENTED_EDGE('',*,*,#292,.T.);
#214=ORIENTED_EDGE('',*,*,#274,.F.);
#215=ORIENTED_EDGE('',*,*,#291,.F.);
#216=ORIENTED_EDGE('',*,*,#293,.T.);
#217=ORIENTED_EDGE('',*,*,#278,.T.);
#218=ORIENTED_EDGE('',*,*,#290,.F.);
#219=ORIENTED_EDGE('',*,*,#294,.T.);
#220=ORIENTED_EDGE('',*,*,#292,.F.);
#221=ORIENTED_EDGE('',*,*,#285,.F.);
#222=ORIENTED_EDGE('',*,*,#283,.F.);
#223=ORIENTED_EDGE('',*,*,#281,.F.);
#224=ORIENTED_EDGE('',*,*,#279,.F.);
#225=ORIENTED_EDGE('',*,*,#293,.F.);
#226=ORIENTED_EDGE('',*,*,#288,.T.);
#227=ORIENTED_EDGE('',*,*,#295,.F.);
#228=ORIENTED_EDGE('',*,*,#287,.T.);
#229=ORIENTED_EDGE('',*,*,#294,.F.);
#230=ORIENTED_EDGE('',*,*,#289,.T.);
#231=ORIENTED_EDGE('',*,*,#295,.T.);
#232=VERTEX_POINT('',#485);
#233=VERTEX_POINT('',#488);
#234=VERTEX_POINT('',#491);
#235=VERTEX_POINT('',#494);
#236=VERTEX_POINT('',#497);
#237=VERTEX_POINT('',#500);
#238=VERTEX_POINT('',#503);
#239=VERTEX_POINT('',#506);
#240=VERTEX_POINT('',#509);
#241=VERTEX_POINT('',#512);
#242=VERTEX_POINT('',#515);
#243=VERTEX_POINT('',#518);
#244=VERTEX_POINT('',#521);
#245=VERTEX_POINT('',#522);
#246=VERTEX_POINT('',#524);
#247=VERTEX_POINT('',#526);
#248=VERTEX_POINT('',#528);
#249=VERTEX_POINT('',#530);
#250=VERTEX_POINT('',#534);
#251=VERTEX_POINT('',#536);
#252=VERTEX_POINT('',#540);
#253=VERTEX_POINT('',#544);
#254=VERTEX_POINT('',#548);
#255=VERTEX_POINT('',#555);
#256=VERTEX_POINT('',#556);
#257=VERTEX_POINT('',#558);
#258=VERTEX_POINT('',#563);
#259=VERTEX_POINT('',#565);
#260=EDGE_CURVE('',#232,#232,#296,.T.);
#261=EDGE_CURVE('',#233,#233,#297,.T.);
#262=EDGE_CURVE('',#234,#234,#298,.T.);
#263=EDGE_CURVE('',#235,#235,#299,.T.);
#264=EDGE_CURVE('',#236,#236,#300,.T.);
#265=EDGE_CURVE('',#237,#237,#301,.T.);
#266=EDGE_CURVE('',#238,#238,#302,.T.);
#267=EDGE_CURVE('',#239,#239,#303,.T.);
#268=EDGE_CURVE('',#240,#240,#304,.T.);
#269=EDGE_CURVE('',#241,#241,#305,.T.);
#270=EDGE_CURVE('',#242,#242,#306,.T.);
#271=EDGE_CURVE('',#243,#243,#307,.T.);
#272=EDGE_CURVE('',#244,#245,#308,.T.);
#273=EDGE_CURVE('',#245,#246,#309,.T.);
#274=EDGE_CURVE('',#246,#247,#310,.T.);
#275=EDGE_CURVE('',#247,#248,#311,.T.);
#276=EDGE_CURVE('',#248,#249,#312,.T.);
#277=EDGE_CURVE('',#249,#244,#313,.T.);
#278=EDGE_CURVE('',#250,#247,#36,.T.);
#279=EDGE_CURVE('',#250,#251,#314,.T.);
#280=EDGE_CURVE('',#251,#248,#37,.T.);
#281=EDGE_CURVE('',#251,#252,#315,.T.);
#282=EDGE_CURVE('',#252,#249,#38,.T.);
#283=EDGE_CURVE('',#252,#253,#316,.T.);
#284=EDGE_CURVE('',#253,#244,#39,.T.);
#285=EDGE_CURVE('',#253,#254,#317,.T.);
#286=EDGE_CURVE('',#254,#245,#40,.T.);
#287=EDGE_CURVE('',#255,#256,#34,.T.);
#288=EDGE_CURVE('',#257,#255,#318,.T.);
#289=EDGE_CURVE('',#258,#257,#35,.T.);
#290=EDGE_CURVE('',#258,#259,#319,.T.);
#291=EDGE_CURVE('',#259,#246,#41,.T.);
#292=EDGE_CURVE('',#254,#256,#320,.T.);
#293=EDGE_CURVE('',#259,#250,#321,.T.);
#294=EDGE_CURVE('',#258,#256,#322,.T.);
#295=EDGE_CURVE('',#257,#255,#323,.T.);
#296=CIRCLE('',#325,7.81617859440279);
#297=CIRCLE('',#327,10.0);
#298=CIRCLE('',#329,18.3088334405463);
#299=CIRCLE('',#331,28.5);
#300=CIRCLE('',#333,28.5);
#301=CIRCLE('',#335,28.4352341016783);
#302=CIRCLE('',#337,25.3349364905389);
#303=CIRCLE('',#339,25.0);
#304=CIRCLE('',#341,25.0);
#305=CIRCLE('',#343,26.25);
#306=CIRCLE('',#345,31.5000000000001);
#307=CIRCLE('',#347,31.5);
#308=CIRCLE('',#349,15.0);
#309=CIRCLE('',#350,36.0);
#310=CIRCLE('',#351,15.0);
#311=CIRCLE('',#352,36.0);
#312=CIRCLE('',#353,15.0);
#313=CIRCLE('',#354,36.0);
#314=CIRCLE('',#356,35.0453077330983);
#315=CIRCLE('',#358,14.0453077330983);
#316=CIRCLE('',#360,35.0453077330983);
#317=CIRCLE('',#362,14.0453077330983);
#318=CIRCLE('',#364,35.2073541836645);
#319=CIRCLE('',#365,35.0453077330983);
#320=CIRCLE('',#366,35.0453077330983);
#321=CIRCLE('',#368,14.0453077330983);
#322=CIRCLE('',#370,6.0);
#323=CIRCLE('',#372,6.0);
#324=AXIS2_PLACEMENT_3D('',#483,#375,#376);
#325=AXIS2_PLACEMENT_3D('',#484,#377,#378);
#326=AXIS2_PLACEMENT_3D('',#486,#379,#380);
#327=AXIS2_PLACEMENT_3D('',#487,#381,#382);
#328=AXIS2_PLACEMENT_3D('',#489,#383,#384);
#329=AXIS2_PLACEMENT_3D('',#490,#385,#386);
#330=AXIS2_PLACEMENT_3D('',#492,#387,#388);
#331=AXIS2_PLACEMENT_3D('',#493,#389,#390);
#332=AXIS2_PLACEMENT_3D('',#495,#391,#392);
#333=AXIS2_PLACEMENT_3D('',#496,#393,#394);
#334=AXIS2_PLACEMENT_3D('',#498,#395,#396);
#335=AXIS2_PLACEMENT_3D('',#499,#397,#398);
#336=AXIS2_PLACEMENT_3D('',#501,#399,#400);
#337=AXIS2_PLACEMENT_3D('',#502,#401,#402);
#338=AXIS2_PLACEMENT_3D('',#504,#403,#404);
#339=AXIS2_PLACEMENT_3D('',#505,#405,#406);
#340=AXIS2_PLACEMENT_3D('',#507,#407,#408);
#341=AXIS2_PLACEMENT_3D('',#508,#409,#410);
#342=AXIS2_PLACEMENT_3D('',#510,#411,#412);
#343=AXIS2_PLACEMENT_3D('',#511,#413,#414);
#344=AXIS2_PLACEMENT_3D('',#513,#415,#416);
#345=AXIS2_PLACEMENT_3D('',#514,#417,#418);
#346=AXIS2_PLACEMENT_3D('',#516,#419,#420);
#347=AXIS2_PLACEMENT_3D('',#517,#421,#422);
#348=AXIS2_PLACEMENT_3D('',#519,#423,#424);
#349=AXIS2_PLACEMENT_3D('',#520,#425,#426);
#350=AXIS2_PLACEMENT_3D('',#523,#427,#428);
#351=AXIS2_PLACEMENT_3D('',#525,#429,#430);
#352=AXIS2_PLACEMENT_3D('',#527,#431,#432);
#353=AXIS2_PLACEMENT_3D('',#529,#433,#434);
#354=AXIS2_PLACEMENT_3D('',#531,#435,#436);
#355=AXIS2_PLACEMENT_3D('',#532,#437,#438);
#356=AXIS2_PLACEMENT_3D('',#535,#440,#441);
#357=AXIS2_PLACEMENT_3D('',#538,#443,#444);
#358=AXIS2_PLACEMENT_3D('',#539,#445,#446);
#359=AXIS2_PLACEMENT_3D('',#542,#448,#449);
#360=AXIS2_PLACEMENT_3D('',#543,#450,#451);
#361=AXIS2_PLACEMENT_3D('',#546,#453,#454);
#362=AXIS2_PLACEMENT_3D('',#547,#455,#456);
#363=AXIS2_PLACEMENT_3D('',#550,#458,#459);
#364=AXIS2_PLACEMENT_3D('',#557,#460,#461);
#365=AXIS2_PLACEMENT_3D('',#564,#462,#463);
#366=AXIS2_PLACEMENT_3D('',#567,#465,#466);
#367=AXIS2_PLACEMENT_3D('',#568,#467,#468);
#368=AXIS2_PLACEMENT_3D('',#569,#469,#470);
#369=AXIS2_PLACEMENT_3D('',#570,#471,#472);
#370=AXIS2_PLACEMENT_3D('',#571,#473,#474);
#371=AXIS2_PLACEMENT_3D('',#572,#475,#476);
#372=AXIS2_PLACEMENT_3D('',#573,#477,#478);
#373=AXIS2_PLACEMENT_3D('',#574,#479,#480);
#374=AXIS2_PLACEMENT_3D('',#575,#481,#482);
#375=DIRECTION('',(0.0,0.0,1.0));
#376=DIRECTION('',(1.0,0.0,0.0));
#377=DIRECTION('',(0.0,0.0,1.0));
#378=DIRECTION('',(1.0,0.0,0.0));
#379=DIRECTION('',(0.0,0.0,1.0));
#380=DIRECTION('',(1.0,0.0,0.0));
#381=DIRECTION('',(0.0,0.0,1.0));
#382=DIRECTION('',(1.0,0.0,0.0));
#383=DIRECTION('',(0.0,0.0,1.0));
#384=DIRECTION('',(1.0,0.0,3.73273130156526E-17));
#385=DIRECTION('',(0.0,0.0,1.0));
#386=DIRECTION('',(1.0,0.0,0.0));
#387=DIRECTION('',(0.0,0.0,1.0));
#388=DIRECTION('',(1.0,0.0,0.0));
#389=DIRECTION('',(0.0,0.0,1.0));
#390=DIRECTION('',(1.0,0.0,0.0));
#391=DIRECTION('',(0.0,0.0,1.0));
#392=DIRECTION('',(1.0,0.0,7.26055333924809E-17));
#393=DIRECTION('',(0.0,0.0,1.0));
#394=DIRECTION('',(1.0,0.0,0.0));
#395=DIRECTION('',(0.0,0.0,1.0));
#396=DIRECTION('',(1.0,0.0,0.0));
#397=DIRECTION('',(0.0,0.0,1.0));
#398=DIRECTION('',(1.0,0.0,0.0));
#399=DIRECTION('',(0.0,0.0,-1.0));
#400=DIRECTION('',(-1.0,0.0,0.0));
#401=DIRECTION('',(0.0,0.0,1.0));
#402=DIRECTION('',(1.0,0.0,0.0));
#403=DIRECTION('',(0.0,0.0,-1.0));
#404=DIRECTION('',(-1.0,0.0,1.37452491673189E-16));
#405=DIRECTION('',(0.0,0.0,1.0));
#406=DIRECTION('',(1.0,0.0,0.0));
#407=DIRECTION('',(0.0,0.0,1.0));
#408=DIRECTION('',(1.0,0.0,0.0));
#409=DIRECTION('',(0.0,0.0,1.0));
#410=DIRECTION('',(1.0,0.0,0.0));
#411=DIRECTION('',(0.0,0.0,1.0));
#412=DIRECTION('',(1.0,0.0,0.0));
#413=DIRECTION('',(0.0,0.0,1.0));
#414=DIRECTION('',(1.0,0.0,0.0));
#415=DIRECTION('',(0.0,0.0,1.0));
#416=DIRECTION('',(1.0,0.0,0.0));
#417=DIRECTION('',(0.0,0.0,1.0));
#418=DIRECTION('',(1.0,0.0,0.0));
#419=DIRECTION('',(0.0,0.0,1.0));
#420=DIRECTION('',(1.0,0.0,1.57854534879077E-17));
#421=DIRECTION('',(0.0,0.0,1.0));
#422=DIRECTION('',(1.0,0.0,0.0));
#423=DIRECTION('',(0.0,0.0,1.0));
#424=DIRECTION('',(1.0,0.0,0.0));
#425=DIRECTION('',(0.0,0.0,-1.0));
#426=DIRECTION('',(-1.0,0.0,0.0));
#427=DIRECTION('',(0.0,0.0,-1.0));
#428=DIRECTION('',(-1.0,0.0,0.0));
#429=DIRECTION('',(0.0,0.0,-1.0));
#430=DIRECTION('',(-1.0,0.0,0.0));
#431=DIRECTION('',(0.0,0.0,-1.0));
#432=DIRECTION('',(-1.0,0.0,0.0));
#433=DIRECTION('',(0.0,0.0,-1.0));
#434=DIRECTION('',(-1.0,0.0,0.0));
#435=DIRECTION('',(0.0,0.0,-1.0));
#436=DIRECTION('',(-1.0,0.0,0.0));
#437=DIRECTION('',(0.0,0.0,-1.0));
#438=DIRECTION('',(-1.0,0.0,0.0));
#439=DIRECTION('',(-0.0247240915509408,0.00441706138277435,-0.999684554679986));
#440=DIRECTION('',(0.0,0.0,-1.0));
#441=DIRECTION('',(-1.0,0.0,0.0));
#442=DIRECTION('',(-0.0158471477192619,0.0194848413758591,-0.999684554679986));
#443=DIRECTION('',(0.0,0.0,-1.0));
#444=DIRECTION('',(1.0,0.0,0.0));
#445=DIRECTION('',(0.0,0.0,-1.0));
#446=DIRECTION('',(-1.0,0.0,0.0));
#447=DIRECTION('',(0.0161271802317241,0.0192537059303393,-0.999684554679986));
#448=DIRECTION('',(0.0,0.0,-1.0));
#449=DIRECTION('',(1.0,0.0,0.0));
#450=DIRECTION('',(0.0,0.0,-1.0));
#451=DIRECTION('',(-1.0,0.0,0.0));
#452=DIRECTION('',(0.024737788568531,0.00433969480691369,-0.999684554679986));
#453=DIRECTION('',(0.0,0.0,-1.0));
#454=DIRECTION('',(1.0,0.0,0.0));
#455=DIRECTION('',(0.0,0.0,-1.0));
#456=DIRECTION('',(-1.0,0.0,0.0));
#457=DIRECTION('',(0.00895079376057316,-0.023466453190335,-0.999684554679986));
#458=DIRECTION('',(0.0,0.0,-1.0));
#459=DIRECTION('',(1.0,0.0,0.0));
#460=DIRECTION('',(0.0,0.0,1.0));
#461=DIRECTION('',(-1.0,0.0,0.0));
#462=DIRECTION('',(0.0,0.0,-1.0));
#463=DIRECTION('',(-1.0,0.0,0.0));
#464=DIRECTION('',(-0.0085367584079126,-0.0236202220599941,-0.999684554679986));
#465=DIRECTION('',(0.0,0.0,-1.0));
#466=DIRECTION('',(-1.0,0.0,0.0));
#467=DIRECTION('',(0.0,0.0,-1.0));
#468=DIRECTION('',(1.0,0.0,0.0));
#469=DIRECTION('',(0.0,0.0,-1.0));
#470=DIRECTION('',(-1.0,0.0,0.0));
#471=DIRECTION('',(0.0,0.0,-1.0));
#472=DIRECTION('',(1.0,0.0,0.0));
#473=DIRECTION('',(0.0,0.0,-1.0));
#474=DIRECTION('',(-1.0,0.0,0.0));
#475=DIRECTION('',(0.0,0.0,-1.0));
#476=DIRECTION('',(1.0,0.0,0.0));
#477=DIRECTION('',(0.0,0.0,-1.0));
#478=DIRECTION('',(-1.0,0.0,0.0));
#479=DIRECTION('',(0.0,0.0,-1.0));
#480=DIRECTION('',(1.0,0.0,0.0));
#481=DIRECTION('',(0.0,0.0,-1.0));
#482=DIRECTION('',(1.0,0.0,0.0));
#483=CARTESIAN_POINT('',(0.0,0.0,0.0));
#484=CARTESIAN_POINT('',(0.0,0.0,-112.1));
#485=CARTESIAN_POINT('',(7.81617859440279,0.0,-112.1));
#486=CARTESIAN_POINT('',(0.0,0.0,-112.1));
#487=CARTESIAN_POINT('',(0.0,0.0,-106.1));
#488=CARTESIAN_POINT('',(10.0,0.0,-106.1));
#489=CARTESIAN_POINT('',(0.0,0.0,-112.1));
#490=CARTESIAN_POINT('',(0.0,0.0,-106.1));
#491=CARTESIAN_POINT('',(18.3088334405463,0.0,-106.1));
#492=CARTESIAN_POINT('',(0.0,-10.0,-106.1));
#493=CARTESIAN_POINT('',(0.0,0.0,-78.1));
#494=CARTESIAN_POINT('',(28.5,0.0,-78.1));
#495=CARTESIAN_POINT('',(0.0,0.0,-106.1));
#496=CARTESIAN_POINT('',(0.0,0.0,-47.1));
#497=CARTESIAN_POINT('',(28.5,0.0,-47.1));
#498=CARTESIAN_POINT('',(0.0,0.0,-112.1));
#499=CARTESIAN_POINT('',(0.0,0.0,-47.1));
#500=CARTESIAN_POINT('',(28.4352341016783,0.0,-47.1));
#501=CARTESIAN_POINT('',(0.0,-28.5,-47.1));
#502=CARTESIAN_POINT('',(0.0,0.0,-41.7301270189222));
#503=CARTESIAN_POINT('',(25.3349364905389,0.0,-41.7301270189222));
#504=CARTESIAN_POINT('',(0.0,0.0,-47.1));
#505=CARTESIAN_POINT('',(0.0,0.0,-40.4801270189222));
#506=CARTESIAN_POINT('',(25.0,0.0,-40.4801270189222));
#507=CARTESIAN_POINT('',(0.0,0.0,-40.4801270189222));
#508=CARTESIAN_POINT('',(0.0,0.0,-27.1961524227067));
#509=CARTESIAN_POINT('',(25.0,0.0,-27.1961524227067));
#510=CARTESIAN_POINT('',(0.0,0.0,-112.1));
#511=CARTESIAN_POINT('',(0.0,0.0,-25.0310889132456));
#512=CARTESIAN_POINT('',(26.25,0.0,-25.0310889132456));
#513=CARTESIAN_POINT('',(0.0,0.0,-27.1961524227067));
#514=CARTESIAN_POINT('',(0.0,0.0,-22.0));
#515=CARTESIAN_POINT('',(31.5000000000001,0.0,-22.0));
#516=CARTESIAN_POINT('',(0.0,0.0,-25.0310889132456));
#517=CARTESIAN_POINT('',(0.0,0.0,0.0));
#518=CARTESIAN_POINT('',(31.5,0.0,0.0));
#519=CARTESIAN_POINT('',(0.0,0.0,-112.1));
#520=CARTESIAN_POINT('',(7.34734445150781,-4.07142843617537,0.0));
#521=CARTESIAN_POINT('',(22.1217270727851,-1.47959160487206,0.0));
#522=CARTESIAN_POINT('',(12.6931113706687,-18.0865194471537,0.0));
#523=CARTESIAN_POINT('',(-0.136729235317403,15.5496989791943,0.0));
#524=CARTESIAN_POINT('',(-12.3731020749835,-18.3069278422817,0.0));
#525=CARTESIAN_POINT('',(-7.27461339178929,-4.2,0.0));
#526=CARTESIAN_POINT('',(-22.0408156141562,-1.56195679941284,0.0));
#527=CARTESIAN_POINT('',(13.3980697195245,-7.89326048082203,0.0));
#528=CARTESIAN_POINT('',(-9.31682962194202,20.0358166236411,0.0));
#529=CARTESIAN_POINT('',(0.147711770335685,8.39870116344809,0.0));
#530=CARTESIAN_POINT('',(9.77949961934714,19.8977734230538,0.0));
#531=CARTESIAN_POINT('',(-13.3367912182804,-7.7,0.0));
#532=CARTESIAN_POINT('',(0.0,-31.5,0.0));
#533=CARTESIAN_POINT('',(-22.0408156141562,-1.56195679941284,0.0));
#534=CARTESIAN_POINT('',(-21.1010036759429,-1.72985809563638,38.0));
#535=CARTESIAN_POINT('',(13.3980697195245,-7.89326048082203,38.0));
#536=CARTESIAN_POINT('',(-8.71444799014345,19.2951590143818,38.0));
#537=CARTESIAN_POINT('',(-9.31682962194202,20.0358166236411,0.0));
#538=CARTESIAN_POINT('',(13.3980697195245,-7.89326048082203,0.0));
#539=CARTESIAN_POINT('',(0.147711770335685,8.39870116344809,38.0));
#540=CARTESIAN_POINT('',(9.16647339428788,19.1659017322012,38.0));
#541=CARTESIAN_POINT('',(9.77949961934714,19.8977734230538,4.35548004590446E-17));
#542=CARTESIAN_POINT('',(0.147711770335685,8.39870116344809,0.0));
#543=CARTESIAN_POINT('',(-13.3367912182804,-7.7,38.0));
#544=CARTESIAN_POINT('',(21.1813944836664,-1.64455204353314,38.0));
#545=CARTESIAN_POINT('',(22.1217270727851,-1.47959160487206,0.0));
#546=CARTESIAN_POINT('',(-13.3367912182804,-7.7,0.0));
#547=CARTESIAN_POINT('',(7.34734445150781,-4.07142843617537,38.0));
#548=CARTESIAN_POINT('',(12.3528738814432,-17.1945128466134,38.0));
#549=CARTESIAN_POINT('',(12.6931113706687,-18.0865194471537,8.71096009180893E-17));
#550=CARTESIAN_POINT('',(7.34734445150781,-4.07142843617537,0.0));
#551=CARTESIAN_POINT('',(3.88457803711796,-19.42724880695,31.55));
#552=CARTESIAN_POINT('',(3.82820272601591,-19.3793576608768,33.7000523490558));
#553=CARTESIAN_POINT('',(3.76985986988091,-19.3315850498223,35.8500569180387));
#554=CARTESIAN_POINT('',(3.70927279766016,-19.2839322192595,38.0));
#555=CARTESIAN_POINT('',(3.88457803711796,-19.42724880695,31.55));
#556=CARTESIAN_POINT('',(3.70927279766016,-19.2839322192595,38.0));
#557=CARTESIAN_POINT('',(-0.136729235317403,15.5496989791943,31.55));
#558=CARTESIAN_POINT('',(-3.91610217635431,-19.4542169272662,31.55));
#559=CARTESIAN_POINT('',(-3.74179204929426,-19.309691666869,38.0));
#560=CARTESIAN_POINT('',(-3.80204819126014,-19.3577622705298,35.8500569180387));
#561=CARTESIAN_POINT('',(-3.86005934259653,-19.405937134822,33.7000523490558));
#562=CARTESIAN_POINT('',(-3.91610217635431,-19.4542169272662,31.55));
#563=CARTESIAN_POINT('',(-3.74179204929426,-19.309691666869,38.0));
#564=CARTESIAN_POINT('',(-0.136729235317403,15.5496989791943,38.0));
#565=CARTESIAN_POINT('',(-12.0486028937347,-17.4090761808972,38.0));
#566=CARTESIAN_POINT('',(-12.3731020749835,-18.3069278422817,0.0));
#567=CARTESIAN_POINT('',(-0.136729235317403,15.5496989791943,38.0));
#568=CARTESIAN_POINT('',(-0.136729235317403,15.5496989791943,0.0));
#569=CARTESIAN_POINT('',(-7.27461339178929,-4.2,38.0));
#570=CARTESIAN_POINT('',(-7.27461339178929,-4.2,0.0));
#571=CARTESIAN_POINT('',(0.0,-24.0,38.0));
#572=CARTESIAN_POINT('',(6.77289074493009,0.25272034131303,38.0));
#573=CARTESIAN_POINT('',(0.0,-24.0,31.55));
#574=CARTESIAN_POINT('',(0.0,-24.0,31.55));
#575=CARTESIAN_POINT('',(0.0,-24.0,38.0));
#576=MECHANICAL_DESIGN_GEOMETRIC_PRESENTATION_REPRESENTATION('',(#24),#577);
#577=(GEOMETRIC_REPRESENTATION_CONTEXT(3)GLOBAL_UNCERTAINTY_ASSIGNED_CONTEXT((#578))
     GLOBAL_UNIT_ASSIGNED_CONTEXT((#584,#580,#579))REPRESENTATION_CONTEXT('C6-391',
     'TOP_LEVEL_ASSEMBLY_PART'));
#578=UNCERTAINTY_MEASURE_WITH_UNIT(LENGTH_MEASURE(2.0E-5),#584,'DISTANCE_ACCURACY_VALUE',
     'Maximum Tolerance applied to model');
#579=(NAMED_UNIT(*)SI_UNIT($,.STERADIAN.)SOLID_ANGLE_UNIT());
#580=(CONVERSION_BASED_UNIT('DEGREE',#582)NAMED_UNIT(*)PLANE_ANGLE_UNIT());
#581=DIMENSIONAL_EXPONENTS(0.0,0.0,0.0,0.0,0.0,0.0,0.0);
#582=PLANE_ANGLE_MEASURE_WITH_UNIT(PLANE_ANGLE_MEASURE(0.0174532925),#583);
#583=(NAMED_UNIT(*)PLANE_ANGLE_UNIT()SI_UNIT($,.RADIAN.));
#584=(LENGTH_UNIT()NAMED_UNIT(*)SI_UNIT(.MILLI.,.METRE.));
#585=CARTESIAN_POINT('',(0.0,0.0,0.0));
#586=DIRECTION('',(0.0,0.0,1.0));
#587=DIRECTION('',(1.0,0.0,0.0));
#588=AXIS2_PLACEMENT_3D('PCS',#585,#586,#587);
#589=CARTESIAN_POINT('',(0.0,0.0,0.0));
#590=DIRECTION('',(0.0,0.0,1.0));
#591=DIRECTION('',(1.0,0.0,0.0));
#592=AXIS2_PLACEMENT_3D('MCS',#589,#590,#591);
#593=CARTESIAN_POINT('',(0.0,0.0,-106.0));
#594=DIRECTION('',(0.0,0.0,1.0));
#595=DIRECTION('',(1.0,0.0,0.0));
#596=AXIS2_PLACEMENT_3D('CSW',#593,#594,#595);
#597=CONSTRUCTIVE_GEOMETRY_REPRESENTATION('supplemental geometry',(#588,#592,#596),
     #577);
#598=CONSTRUCTIVE_GEOMETRY_REPRESENTATION_RELATIONSHIP('supplemental geometry',$,
     #22,#597);
ENDSEC;
END-ISO-10303-21;
