ISO-10303-21;
HEADER;
FILE_DESCRIPTION(
/* description */ ('3-D model version:1'),
/* implementation_level */ '2;1');
FILE_NAME(
/* name */ 'C5-391.EH-25038',
/* time_stamp */ '2016-12-02T14:14:47',
/* author */ ('InteractiveCad'),
/* organization */ ('AB Sandvik Coromant'),
/* preprocessor_version */ 'ST-DEVELOPER v15',
/* originating_system */ 'SIEMENS PLM Software NX 8.5',
/* authorization */ '');
FILE_SCHEMA(('AUTOMOTIVE_DESIGN'));
ENDSEC;
DATA;
#10=SHAPE_REPRESENTATION_RELATIONSHIP('None','relationship between C5_391_EH_25038_SIM-None and C5_391_EH_25038_SIM-None',
     #92,#11);
#11=ADVANCED_BREP_SHAPE_REPRESENTATION('C5_391_EH_25038_SIM-None',(#102),#507);
#15=APPROVAL_PERSON_ORGANIZATION(#69,#24,#18);
#16=APPROVAL_PERSON_ORGANIZATION(#70,#25,#19);
#17=APPROVAL_PERSON_ORGANIZATION(#71,#26,#20);
#18=APPROVAL_ROLE('approver');
#19=APPROVAL_ROLE('approver');
#20=APPROVAL_ROLE('approver');
#21=APPROVAL_DATE_TIME(#39,#24);
#22=APPROVAL_DATE_TIME(#40,#25);
#23=APPROVAL_DATE_TIME(#41,#26);
#24=APPROVAL(#27,' ');
#25=APPROVAL(#28,' ');
#26=APPROVAL(#29,' ');
#27=APPROVAL_STATUS('not_yet_approved');
#28=APPROVAL_STATUS('not_yet_approved');
#29=APPROVAL_STATUS('not_yet_approved');
#31=SECURITY_CLASSIFICATION(' ',' ',#32);
#32=SECURITY_CLASSIFICATION_LEVEL('confidential');
#35=DATE_TIME_ROLE('creation_date');
#36=DATE_TIME_ROLE('classification_date');
#37=DATE_AND_TIME(#52,#42);
#38=DATE_AND_TIME(#53,#43);
#39=DATE_AND_TIME(#54,#44);
#40=DATE_AND_TIME(#55,#45);
#41=DATE_AND_TIME(#56,#46);
#42=LOCAL_TIME(0,0,0.0,#47);
#43=LOCAL_TIME(0,0,0.0,#48);
#44=LOCAL_TIME(0,0,0.0,#49);
#45=LOCAL_TIME(0,0,0.0,#50);
#46=LOCAL_TIME(0,0,0.0,#51);
#47=COORDINATED_UNIVERSAL_TIME_OFFSET(0,0,.BEHIND.);
#48=COORDINATED_UNIVERSAL_TIME_OFFSET(0,0,.BEHIND.);
#49=COORDINATED_UNIVERSAL_TIME_OFFSET(0,0,.BEHIND.);
#50=COORDINATED_UNIVERSAL_TIME_OFFSET(0,0,.BEHIND.);
#51=COORDINATED_UNIVERSAL_TIME_OFFSET(0,0,.BEHIND.);
#52=CALENDAR_DATE(0,1,1);
#53=CALENDAR_DATE(0,1,1);
#54=CALENDAR_DATE(0,1,1);
#55=CALENDAR_DATE(0,1,1);
#56=CALENDAR_DATE(0,1,1);
#61=PERSON_AND_ORGANIZATION_ROLE('creator');
#62=PERSON_AND_ORGANIZATION_ROLE('design_owner');
#63=PERSON_AND_ORGANIZATION_ROLE('design_supplier');
#64=PERSON_AND_ORGANIZATION_ROLE('classification_officer');
#65=PERSON_AND_ORGANIZATION(#79,#72);
#66=PERSON_AND_ORGANIZATION(#79,#73);
#67=PERSON_AND_ORGANIZATION(#79,#74);
#68=PERSON_AND_ORGANIZATION(#79,#75);
#69=PERSON_AND_ORGANIZATION(#79,#76);
#70=PERSON_AND_ORGANIZATION(#79,#77);
#71=PERSON_AND_ORGANIZATION(#79,#78);
#72=ORGANIZATION(' ',' ',' ');
#73=ORGANIZATION(' ',' ',' ');
#74=ORGANIZATION(' ',' ',' ');
#75=ORGANIZATION(' ',' ',' ');
#76=ORGANIZATION(' ',' ',' ');
#77=ORGANIZATION(' ',' ',' ');
#78=ORGANIZATION(' ',' ',' ');
#79=PERSON(' ',' ',' ',(' '),$,$);
#80=SHAPE_DEFINITION_REPRESENTATION(#81,#92);
#81=PRODUCT_DEFINITION_SHAPE('','',#82);
#82=PRODUCT_DEFINITION(' ','',#84,$);
#84=PRODUCT_DEFINITION_FORMATION_WITH_SPECIFIED_SOURCE(' ',' ',#86,.NOT_KNOWN.);
#85=PRODUCT_RELATED_PRODUCT_CATEGORY('detail','',(#86));
#86=PRODUCT('C5_391_EH_25038_SIM','C5_391_EH_25038_SIM',' ',());
#87=PRODUCT_CATEGORY('part',' ');
#88=PRODUCT_CATEGORY(' ','');
#90=APPLICATION_PROTOCOL_DEFINITION('international standard','config_control_design',
     2010,#91);
#91=APPLICATION_CONTEXT('configuration controlled 3D designs of mechanical parts and assemblies');
#92=SHAPE_REPRESENTATION('C5_391_EH_25038_SIM-None',(#317),#507);
#93=PRESENTATION_LAYER_ASSIGNMENT('1','Layer 1',(#102));
#94=STYLED_ITEM('',(#95),#102);
#95=PRESENTATION_STYLE_ASSIGNMENT((#96));
#96=SURFACE_STYLE_USAGE(.BOTH.,#97);
#97=SURFACE_SIDE_STYLE('',(#98));
#98=SURFACE_STYLE_FILL_AREA(#99);
#99=FILL_AREA_STYLE('',(#100));
#100=FILL_AREA_STYLE_COLOUR('',#101);
#101=COLOUR_RGB('Medium Gray',0.490196078431373,0.490196078431373,0.490196078431373);
#102=MANIFOLD_SOLID_BREP('NOCUT',#103);
#103=CLOSED_SHELL('',(#140,#141,#142,#143,#144,#145,#146,#147,#148,#149,#150,#151,
     #152,#153,#154));
#104=TOROIDAL_SURFACE('',#353,17.05,5.0);
#105=PLANE('',#342);
#106=PLANE('',#343);
#107=PLANE('',#345);
#108=PLANE('',#348);
#109=PLANE('',#350);
#110=B_SPLINE_CURVE_WITH_KNOTS('',3,(#467,#468,#469,#470),.UNSPECIFIED.,.F.,.F.,
     (4,4),(0.0,1.0),.UNSPECIFIED.);
#111=B_SPLINE_CURVE_WITH_KNOTS('',3,(#475,#476,#477,#478),.UNSPECIFIED.,.F.,.F.,
     (4,4),(0.0,1.0),.UNSPECIFIED.);
#112=CONICAL_SURFACE('',#323,28.0,1.43916666666667);
#113=CONICAL_SURFACE('',#326,12.0,1.43916666666667);
#114=CONICAL_SURFACE('',#329,28.0,1.43916666666667);
#115=CONICAL_SURFACE('',#332,12.0,1.43916666666667);
#116=CONICAL_SURFACE('',#337,28.0,1.43916666666667);
#117=CONICAL_SURFACE('',#340,12.0,1.43916666666667);
#118=FACE_OUTER_BOUND('',#170,.T.);
#119=FACE_OUTER_BOUND('',#171,.T.);
#120=FACE_OUTER_BOUND('',#172,.T.);
#121=FACE_OUTER_BOUND('',#173,.T.);
#122=FACE_OUTER_BOUND('',#174,.T.);
#123=FACE_OUTER_BOUND('',#175,.T.);
#124=FACE_OUTER_BOUND('',#176,.T.);
#125=FACE_OUTER_BOUND('',#179,.T.);
#126=FACE_OUTER_BOUND('',#180,.T.);
#127=FACE_OUTER_BOUND('',#183,.T.);
#128=LINE('',#443,#134);
#129=LINE('',#447,#135);
#130=LINE('',#453,#136);
#131=LINE('',#459,#137);
#132=LINE('',#465,#138);
#133=LINE('',#482,#139);
#134=VECTOR('',#364,1.0);
#135=VECTOR('',#367,1.0);
#136=VECTOR('',#374,1.0);
#137=VECTOR('',#381,1.0);
#138=VECTOR('',#388,1.0);
#139=VECTOR('',#395,1.0);
#140=ADVANCED_FACE('',(#158,#159),#155,.T.);
#141=ADVANCED_FACE('',(#118),#112,.T.);
#142=ADVANCED_FACE('',(#119),#113,.T.);
#143=ADVANCED_FACE('',(#120),#114,.T.);
#144=ADVANCED_FACE('',(#121),#115,.T.);
#145=ADVANCED_FACE('',(#122),#116,.T.);
#146=ADVANCED_FACE('',(#123),#117,.T.);
#147=ADVANCED_FACE('',(#124),#105,.F.);
#148=ADVANCED_FACE('',(#160,#161),#106,.T.);
#149=ADVANCED_FACE('',(#125),#107,.F.);
#150=ADVANCED_FACE('',(#126),#156,.F.);
#151=ADVANCED_FACE('',(#162,#163),#108,.T.);
#152=ADVANCED_FACE('',(#127),#109,.T.);
#153=ADVANCED_FACE('',(#164,#165),#157,.T.);
#154=ADVANCED_FACE('',(#166,#167),#104,.F.);
#155=CYLINDRICAL_SURFACE('',#320,25.0);
#156=CYLINDRICAL_SURFACE('',#346,5.0);
#157=CYLINDRICAL_SURFACE('',#352,12.05);
#158=FACE_BOUND('',#168,.T.);
#159=FACE_BOUND('',#169,.T.);
#160=FACE_BOUND('',#177,.T.);
#161=FACE_BOUND('',#178,.T.);
#162=FACE_BOUND('',#181,.T.);
#163=FACE_BOUND('',#182,.T.);
#164=FACE_BOUND('',#184,.T.);
#165=FACE_BOUND('',#185,.T.);
#166=FACE_BOUND('',#186,.T.);
#167=FACE_BOUND('',#187,.T.);
#168=EDGE_LOOP('',(#188));
#169=EDGE_LOOP('',(#189));
#170=EDGE_LOOP('',(#190,#191,#192,#193));
#171=EDGE_LOOP('',(#194,#195,#196,#197));
#172=EDGE_LOOP('',(#198,#199,#200,#201));
#173=EDGE_LOOP('',(#202,#203,#204,#205));
#174=EDGE_LOOP('',(#206,#207,#208,#209,#210,#211,#212,#213));
#175=EDGE_LOOP('',(#214,#215,#216,#217));
#176=EDGE_LOOP('',(#218,#219,#220,#221,#222,#223,#224,#225));
#177=EDGE_LOOP('',(#226,#227,#228,#229,#230,#231));
#178=EDGE_LOOP('',(#232));
#179=EDGE_LOOP('',(#233,#234));
#180=EDGE_LOOP('',(#235,#236,#237,#238));
#181=EDGE_LOOP('',(#239));
#182=EDGE_LOOP('',(#240));
#183=EDGE_LOOP('',(#241));
#184=EDGE_LOOP('',(#242));
#185=EDGE_LOOP('',(#243));
#186=EDGE_LOOP('',(#244));
#187=EDGE_LOOP('',(#245));
#188=ORIENTED_EDGE('',*,*,#267,.T.);
#189=ORIENTED_EDGE('',*,*,#268,.T.);
#190=ORIENTED_EDGE('',*,*,#269,.F.);
#191=ORIENTED_EDGE('',*,*,#270,.F.);
#192=ORIENTED_EDGE('',*,*,#271,.T.);
#193=ORIENTED_EDGE('',*,*,#272,.T.);
#194=ORIENTED_EDGE('',*,*,#273,.F.);
#195=ORIENTED_EDGE('',*,*,#272,.F.);
#196=ORIENTED_EDGE('',*,*,#274,.T.);
#197=ORIENTED_EDGE('',*,*,#275,.T.);
#198=ORIENTED_EDGE('',*,*,#276,.F.);
#199=ORIENTED_EDGE('',*,*,#275,.F.);
#200=ORIENTED_EDGE('',*,*,#277,.T.);
#201=ORIENTED_EDGE('',*,*,#278,.T.);
#202=ORIENTED_EDGE('',*,*,#279,.F.);
#203=ORIENTED_EDGE('',*,*,#278,.F.);
#204=ORIENTED_EDGE('',*,*,#280,.T.);
#205=ORIENTED_EDGE('',*,*,#281,.T.);
#206=ORIENTED_EDGE('',*,*,#282,.F.);
#207=ORIENTED_EDGE('',*,*,#283,.F.);
#208=ORIENTED_EDGE('',*,*,#284,.F.);
#209=ORIENTED_EDGE('',*,*,#285,.T.);
#210=ORIENTED_EDGE('',*,*,#286,.T.);
#211=ORIENTED_EDGE('',*,*,#287,.F.);
#212=ORIENTED_EDGE('',*,*,#281,.F.);
#213=ORIENTED_EDGE('',*,*,#288,.T.);
#214=ORIENTED_EDGE('',*,*,#289,.F.);
#215=ORIENTED_EDGE('',*,*,#286,.F.);
#216=ORIENTED_EDGE('',*,*,#290,.T.);
#217=ORIENTED_EDGE('',*,*,#270,.T.);
#218=ORIENTED_EDGE('',*,*,#285,.F.);
#219=ORIENTED_EDGE('',*,*,#291,.T.);
#220=ORIENTED_EDGE('',*,*,#288,.F.);
#221=ORIENTED_EDGE('',*,*,#280,.F.);
#222=ORIENTED_EDGE('',*,*,#277,.F.);
#223=ORIENTED_EDGE('',*,*,#274,.F.);
#224=ORIENTED_EDGE('',*,*,#271,.F.);
#225=ORIENTED_EDGE('',*,*,#290,.F.);
#226=ORIENTED_EDGE('',*,*,#289,.T.);
#227=ORIENTED_EDGE('',*,*,#269,.T.);
#228=ORIENTED_EDGE('',*,*,#273,.T.);
#229=ORIENTED_EDGE('',*,*,#276,.T.);
#230=ORIENTED_EDGE('',*,*,#279,.T.);
#231=ORIENTED_EDGE('',*,*,#287,.T.);
#232=ORIENTED_EDGE('',*,*,#267,.F.);
#233=ORIENTED_EDGE('',*,*,#283,.T.);
#234=ORIENTED_EDGE('',*,*,#292,.F.);
#235=ORIENTED_EDGE('',*,*,#282,.T.);
#236=ORIENTED_EDGE('',*,*,#291,.F.);
#237=ORIENTED_EDGE('',*,*,#284,.T.);
#238=ORIENTED_EDGE('',*,*,#292,.T.);
#239=ORIENTED_EDGE('',*,*,#293,.T.);
#240=ORIENTED_EDGE('',*,*,#268,.F.);
#241=ORIENTED_EDGE('',*,*,#294,.T.);
#242=ORIENTED_EDGE('',*,*,#295,.T.);
#243=ORIENTED_EDGE('',*,*,#294,.F.);
#244=ORIENTED_EDGE('',*,*,#293,.F.);
#245=ORIENTED_EDGE('',*,*,#295,.F.);
#246=VERTEX_POINT('',#436);
#247=VERTEX_POINT('',#438);
#248=VERTEX_POINT('',#441);
#249=VERTEX_POINT('',#442);
#250=VERTEX_POINT('',#444);
#251=VERTEX_POINT('',#446);
#252=VERTEX_POINT('',#450);
#253=VERTEX_POINT('',#452);
#254=VERTEX_POINT('',#456);
#255=VERTEX_POINT('',#458);
#256=VERTEX_POINT('',#462);
#257=VERTEX_POINT('',#464);
#258=VERTEX_POINT('',#471);
#259=VERTEX_POINT('',#472);
#260=VERTEX_POINT('',#474);
#261=VERTEX_POINT('',#479);
#262=VERTEX_POINT('',#481);
#263=VERTEX_POINT('',#483);
#264=VERTEX_POINT('',#497);
#265=VERTEX_POINT('',#500);
#266=VERTEX_POINT('',#503);
#267=EDGE_CURVE('',#246,#246,#296,.T.);
#268=EDGE_CURVE('',#247,#247,#297,.T.);
#269=EDGE_CURVE('',#248,#249,#298,.T.);
#270=EDGE_CURVE('',#250,#248,#128,.T.);
#271=EDGE_CURVE('',#250,#251,#299,.T.);
#272=EDGE_CURVE('',#251,#249,#129,.T.);
#273=EDGE_CURVE('',#249,#252,#300,.T.);
#274=EDGE_CURVE('',#251,#253,#301,.T.);
#275=EDGE_CURVE('',#253,#252,#130,.T.);
#276=EDGE_CURVE('',#252,#254,#302,.T.);
#277=EDGE_CURVE('',#253,#255,#303,.T.);
#278=EDGE_CURVE('',#255,#254,#131,.T.);
#279=EDGE_CURVE('',#254,#256,#304,.T.);
#280=EDGE_CURVE('',#255,#257,#305,.T.);
#281=EDGE_CURVE('',#257,#256,#132,.T.);
#282=EDGE_CURVE('',#258,#259,#110,.T.);
#283=EDGE_CURVE('',#260,#258,#306,.T.);
#284=EDGE_CURVE('',#261,#260,#111,.T.);
#285=EDGE_CURVE('',#261,#262,#307,.T.);
#286=EDGE_CURVE('',#262,#263,#133,.T.);
#287=EDGE_CURVE('',#256,#263,#308,.T.);
#288=EDGE_CURVE('',#257,#259,#309,.T.);
#289=EDGE_CURVE('',#263,#248,#310,.T.);
#290=EDGE_CURVE('',#262,#250,#311,.T.);
#291=EDGE_CURVE('',#261,#259,#312,.T.);
#292=EDGE_CURVE('',#260,#258,#313,.T.);
#293=EDGE_CURVE('',#264,#264,#314,.T.);
#294=EDGE_CURVE('',#265,#265,#315,.T.);
#295=EDGE_CURVE('',#266,#266,#316,.T.);
#296=CIRCLE('',#318,25.0);
#297=CIRCLE('',#319,25.0);
#298=CIRCLE('',#321,28.0);
#299=CIRCLE('',#322,27.2462955787619);
#300=CIRCLE('',#324,12.0);
#301=CIRCLE('',#325,11.2462955787618);
#302=CIRCLE('',#327,28.0);
#303=CIRCLE('',#328,27.2462955787619);
#304=CIRCLE('',#330,12.0);
#305=CIRCLE('',#331,11.2462955787618);
#306=CIRCLE('',#333,27.3857308966909);
#307=CIRCLE('',#334,27.2462955787619);
#308=CIRCLE('',#335,28.0);
#309=CIRCLE('',#336,27.2462955787619);
#310=CIRCLE('',#338,12.0);
#311=CIRCLE('',#339,11.2462955787618);
#312=CIRCLE('',#341,5.0);
#313=CIRCLE('',#344,5.0);
#314=CIRCLE('',#347,17.05);
#315=CIRCLE('',#349,12.05);
#316=CIRCLE('',#351,12.05);
#317=AXIS2_PLACEMENT_3D('',#434,#354,#355);
#318=AXIS2_PLACEMENT_3D('',#435,#356,#357);
#319=AXIS2_PLACEMENT_3D('',#437,#358,#359);
#320=AXIS2_PLACEMENT_3D('',#439,#360,#361);
#321=AXIS2_PLACEMENT_3D('',#440,#362,#363);
#322=AXIS2_PLACEMENT_3D('',#445,#365,#366);
#323=AXIS2_PLACEMENT_3D('',#448,#368,#369);
#324=AXIS2_PLACEMENT_3D('',#449,#370,#371);
#325=AXIS2_PLACEMENT_3D('',#451,#372,#373);
#326=AXIS2_PLACEMENT_3D('',#454,#375,#376);
#327=AXIS2_PLACEMENT_3D('',#455,#377,#378);
#328=AXIS2_PLACEMENT_3D('',#457,#379,#380);
#329=AXIS2_PLACEMENT_3D('',#460,#382,#383);
#330=AXIS2_PLACEMENT_3D('',#461,#384,#385);
#331=AXIS2_PLACEMENT_3D('',#463,#386,#387);
#332=AXIS2_PLACEMENT_3D('',#466,#389,#390);
#333=AXIS2_PLACEMENT_3D('',#473,#391,#392);
#334=AXIS2_PLACEMENT_3D('',#480,#393,#394);
#335=AXIS2_PLACEMENT_3D('',#484,#396,#397);
#336=AXIS2_PLACEMENT_3D('',#485,#398,#399);
#337=AXIS2_PLACEMENT_3D('',#486,#400,#401);
#338=AXIS2_PLACEMENT_3D('',#487,#402,#403);
#339=AXIS2_PLACEMENT_3D('',#488,#404,#405);
#340=AXIS2_PLACEMENT_3D('',#489,#406,#407);
#341=AXIS2_PLACEMENT_3D('',#490,#408,#409);
#342=AXIS2_PLACEMENT_3D('',#491,#410,#411);
#343=AXIS2_PLACEMENT_3D('',#492,#412,#413);
#344=AXIS2_PLACEMENT_3D('',#493,#414,#415);
#345=AXIS2_PLACEMENT_3D('',#494,#416,#417);
#346=AXIS2_PLACEMENT_3D('',#495,#418,#419);
#347=AXIS2_PLACEMENT_3D('',#496,#420,#421);
#348=AXIS2_PLACEMENT_3D('',#498,#422,#423);
#349=AXIS2_PLACEMENT_3D('',#499,#424,#425);
#350=AXIS2_PLACEMENT_3D('',#501,#426,#427);
#351=AXIS2_PLACEMENT_3D('',#502,#428,#429);
#352=AXIS2_PLACEMENT_3D('',#504,#430,#431);
#353=AXIS2_PLACEMENT_3D('',#505,#432,#433);
#354=DIRECTION('',(0.0,0.0,1.0));
#355=DIRECTION('',(1.0,0.0,0.0));
#356=DIRECTION('',(0.0,0.0,-1.0));
#357=DIRECTION('',(-1.0,0.0,0.0));
#358=DIRECTION('',(0.0,0.0,1.0));
#359=DIRECTION('',(-1.0,0.0,0.0));
#360=DIRECTION('',(0.0,0.0,-1.0));
#361=DIRECTION('',(1.0,0.0,0.0));
#362=DIRECTION('',(0.0,0.0,-1.0));
#363=DIRECTION('',(-1.0,0.0,0.0));
#364=DIRECTION('',(-0.0248035201341083,0.00394671043216829,-0.999684554679986));
#365=DIRECTION('',(0.0,0.0,-1.0));
#366=DIRECTION('',(-1.0,0.0,0.0));
#367=DIRECTION('',(-0.0157864666720801,0.0195340370709642,-0.999684554679986));
#368=DIRECTION('',(0.0,0.0,-1.0));
#369=DIRECTION('',(1.0,0.0,0.0));
#370=DIRECTION('',(0.0,0.0,-1.0));
#371=DIRECTION('',(-1.0,0.0,0.0));
#372=DIRECTION('',(0.0,0.0,-1.0));
#373=DIRECTION('',(-1.0,0.0,0.0));
#374=DIRECTION('',(0.0158141500870706,0.0195116322049721,-0.999684554679986));
#375=DIRECTION('',(0.0,0.0,-1.0));
#376=DIRECTION('',(1.0,0.0,0.0));
#377=DIRECTION('',(0.0,0.0,-1.0));
#378=DIRECTION('',(-1.0,0.0,0.0));
#379=DIRECTION('',(0.0,0.0,-1.0));
#380=DIRECTION('',(-1.0,0.0,0.0));
#381=DIRECTION('',(0.0248046442023397,0.00393963961217701,-0.999684554679986));
#382=DIRECTION('',(0.0,0.0,-1.0));
#383=DIRECTION('',(1.0,0.0,0.0));
#384=DIRECTION('',(0.0,0.0,-1.0));
#385=DIRECTION('',(-1.0,0.0,0.0));
#386=DIRECTION('',(0.0,0.0,-1.0));
#387=DIRECTION('',(-1.0,0.0,0.0));
#388=DIRECTION('',(0.00902373900588192,-0.0234384997094998,-0.999684554679986));
#389=DIRECTION('',(0.0,0.0,-1.0));
#390=DIRECTION('',(1.0,0.0,0.0));
#391=DIRECTION('',(0.0,0.0,1.0));
#392=DIRECTION('',(-1.0,0.0,0.0));
#393=DIRECTION('',(0.0,0.0,-1.0));
#394=DIRECTION('',(-1.0,0.0,0.0));
#395=DIRECTION('',(-0.00898380857141531,-0.0234538337555006,-0.999684554679986));
#396=DIRECTION('',(0.0,0.0,-1.0));
#397=DIRECTION('',(-1.0,0.0,0.0));
#398=DIRECTION('',(0.0,0.0,-1.0));
#399=DIRECTION('',(-1.0,0.0,0.0));
#400=DIRECTION('',(0.0,0.0,-1.0));
#401=DIRECTION('',(1.0,0.0,0.0));
#402=DIRECTION('',(0.0,0.0,-1.0));
#403=DIRECTION('',(-1.0,0.0,0.0));
#404=DIRECTION('',(0.0,0.0,-1.0));
#405=DIRECTION('',(-1.0,0.0,0.0));
#406=DIRECTION('',(0.0,0.0,-1.0));
#407=DIRECTION('',(1.0,0.0,0.0));
#408=DIRECTION('',(0.0,0.0,-1.0));
#409=DIRECTION('',(-1.0,0.0,0.0));
#410=DIRECTION('',(0.0,0.0,-1.0));
#411=DIRECTION('',(1.0,0.0,0.0));
#412=DIRECTION('',(0.0,0.0,1.0));
#413=DIRECTION('',(-1.0,0.0,0.0));
#414=DIRECTION('',(0.0,0.0,-1.0));
#415=DIRECTION('',(-1.0,0.0,0.0));
#416=DIRECTION('',(0.0,0.0,-1.0));
#417=DIRECTION('',(1.0,0.0,0.0));
#418=DIRECTION('',(0.0,0.0,-1.0));
#419=DIRECTION('',(1.0,0.0,0.0));
#420=DIRECTION('',(0.0,0.0,1.0));
#421=DIRECTION('',(-1.0,0.0,0.0));
#422=DIRECTION('',(0.0,0.0,-1.0));
#423=DIRECTION('',(1.0,0.0,0.0));
#424=DIRECTION('',(0.0,0.0,-1.0));
#425=DIRECTION('',(-1.0,0.0,0.0));
#426=DIRECTION('',(0.0,0.0,-1.0));
#427=DIRECTION('',(-1.0,0.0,0.0));
#428=DIRECTION('',(0.0,0.0,-1.0));
#429=DIRECTION('',(-1.0,0.0,0.0));
#430=DIRECTION('',(0.0,0.0,-1.0));
#431=DIRECTION('',(-1.0,0.0,0.0));
#432=DIRECTION('',(0.0,0.0,-1.0));
#433=DIRECTION('',(-1.0,0.0,0.0));
#434=CARTESIAN_POINT('',(0.0,0.0,0.0));
#435=CARTESIAN_POINT('',(0.0,0.0,0.0));
#436=CARTESIAN_POINT('',(-25.0,0.0,0.0));
#437=CARTESIAN_POINT('',(0.0,0.0,-8.0));
#438=CARTESIAN_POINT('',(-25.0,0.0,-8.0));
#439=CARTESIAN_POINT('',(0.0,0.0,0.0));
#440=CARTESIAN_POINT('',(10.0681279375701,-5.82427314056864,0.0));
#441=CARTESIAN_POINT('',(-17.5840002560203,-1.42429514457352,0.0));
#442=CARTESIAN_POINT('',(-7.53136591572022,15.9531880546211,0.0));
#443=CARTESIAN_POINT('',(-17.5840002560203,-1.42429514457352,-1.74219201836179E-16));
#444=CARTESIAN_POINT('',(-16.8396598533005,-1.54273381846396,30.0));
#445=CARTESIAN_POINT('',(10.0681279375701,-5.82427314056864,30.0));
#446=CARTESIAN_POINT('',(-7.05762247540669,15.366982026544,30.0));
#447=CARTESIAN_POINT('',(-7.53136591572022,15.9531880546211,0.0));
#448=CARTESIAN_POINT('',(10.0681279375701,-5.82427314056864,0.0));
#449=CARTESIAN_POINT('',(0.0112743071184957,6.61999039953979,0.0));
#450=CARTESIAN_POINT('',(7.56714143143875,15.9424831991946,0.0));
#451=CARTESIAN_POINT('',(0.0112743071184957,6.61999039953979,30.0));
#452=CARTESIAN_POINT('',(7.09256722661472,15.3569495291895,30.0));
#453=CARTESIAN_POINT('',(7.56714143143875,15.9424831991946,4.35548004590446E-17));
#454=CARTESIAN_POINT('',(0.0112743071184957,6.61999039953979,0.0));
#455=CARTESIAN_POINT('',(-10.0632151919752,-5.81,0.0));
#456=CARTESIAN_POINT('',(17.5901661656285,-1.41790488594162,0.0));
#457=CARTESIAN_POINT('',(-10.0632151919752,-5.81,30.0));
#458=CARTESIAN_POINT('',(16.845792030221,-1.53613136829749,30.0));
#459=CARTESIAN_POINT('',(17.5901661656285,-1.41790488594162,0.0));
#460=CARTESIAN_POINT('',(-10.0632151919752,-5.81,0.0));
#461=CARTESIAN_POINT('',(5.7387170123698,-3.30023136339521,0.0));
#462=CARTESIAN_POINT('',(10.0501831687922,-14.4989482355205,0.0));
#463=CARTESIAN_POINT('',(5.7387170123698,-3.30023136339521,30.0));
#464=CARTESIAN_POINT('',(9.77938557678269,-13.7955713672942,30.0));
#465=CARTESIAN_POINT('',(10.0501831687922,-14.4989482355205,0.0));
#466=CARTESIAN_POINT('',(5.7387170123698,-3.30023136339521,0.0));
#467=CARTESIAN_POINT('',(3.58734998592506,-15.5170529607122,24.45));
#468=CARTESIAN_POINT('',(3.54701774381426,-15.4755117410105,26.3000273089909));
#469=CARTESIAN_POINT('',(3.50538973197555,-15.4340772977189,28.1500293204981));
#470=CARTESIAN_POINT('',(3.46233244950734,-15.3927497994888,30.0));
#471=CARTESIAN_POINT('',(3.58734998592506,-15.5170529607122,24.45));
#472=CARTESIAN_POINT('',(3.46233244950734,-15.3927497994888,30.0));
#473=CARTESIAN_POINT('',(-0.00990452952675801,11.6313911327719,24.45));
#474=CARTESIAN_POINT('',(-3.58960162766305,-15.5193735973709,24.45));
#475=CARTESIAN_POINT('',(-3.46466450317153,-15.3949896143751,30.0));
#476=CARTESIAN_POINT('',(-3.50769505049887,-15.4363449487375,28.1500293204981));
#477=CARTESIAN_POINT('',(-3.54929625833513,-15.4778063038418,26.3000273089909));
#478=CARTESIAN_POINT('',(-3.58960162766305,-15.5193735973709,24.45));
#479=CARTESIAN_POINT('',(-3.46466450317153,-15.3949896143751,30.0));
#480=CARTESIAN_POINT('',(-0.00990452952675801,11.6313911327719,30.0));
#481=CARTESIAN_POINT('',(-9.75587660471742,-13.8122063148152,30.0));
#482=CARTESIAN_POINT('',(-10.0254759056977,-14.5160433495789,0.0));
#483=CARTESIAN_POINT('',(-10.0254759056977,-14.5160433495789,0.0));
#484=CARTESIAN_POINT('',(-0.00990452952675801,11.6313911327719,0.0));
#485=CARTESIAN_POINT('',(-0.00990452952675801,11.6313911327719,30.0));
#486=CARTESIAN_POINT('',(-0.00990452952675801,11.6313911327719,0.0));
#487=CARTESIAN_POINT('',(-5.73308817305298,-3.31,0.0));
#488=CARTESIAN_POINT('',(-5.73308817305298,-3.31,30.0));
#489=CARTESIAN_POINT('',(-5.73308817305298,-3.31,0.0));
#490=CARTESIAN_POINT('',(0.0,-19.0,30.0));
#491=CARTESIAN_POINT('',(5.03970112234431,0.397858629485572,30.0));
#492=CARTESIAN_POINT('',(0.0,0.0,0.0));
#493=CARTESIAN_POINT('',(0.0,-19.0,24.45));
#494=CARTESIAN_POINT('',(0.0,-19.0,24.45));
#495=CARTESIAN_POINT('',(0.0,-19.0,30.0));
#496=CARTESIAN_POINT('',(0.0,0.0,-8.0));
#497=CARTESIAN_POINT('',(-17.05,0.0,-8.0));
#498=CARTESIAN_POINT('',(0.0,0.0,-8.0));
#499=CARTESIAN_POINT('',(0.0,0.0,-38.0));
#500=CARTESIAN_POINT('',(-12.05,0.0,-38.0));
#501=CARTESIAN_POINT('',(0.0,0.0,-38.0));
#502=CARTESIAN_POINT('',(0.0,0.0,-13.0));
#503=CARTESIAN_POINT('',(-12.05,0.0,-13.0));
#504=CARTESIAN_POINT('',(0.0,0.0,-8.0));
#505=CARTESIAN_POINT('',(0.0,0.0,-13.0));
#506=MECHANICAL_DESIGN_GEOMETRIC_PRESENTATION_REPRESENTATION('',(#94),#507);
#507=(GEOMETRIC_REPRESENTATION_CONTEXT(3)GLOBAL_UNCERTAINTY_ASSIGNED_CONTEXT((#508))
     GLOBAL_UNIT_ASSIGNED_CONTEXT((#514,#510,#509))REPRESENTATION_CONTEXT('C5_391_EH_25038_SIM',
     'TOP_LEVEL_ASSEMBLY_PART'));
#508=UNCERTAINTY_MEASURE_WITH_UNIT(LENGTH_MEASURE(2.0E-5),#514,'DISTANCE_ACCURACY_VALUE',
     'Maximum Tolerance applied to model');
#509=(NAMED_UNIT(*)SI_UNIT($,.STERADIAN.)SOLID_ANGLE_UNIT());
#510=(CONVERSION_BASED_UNIT('DEGREE',#512)NAMED_UNIT(*)PLANE_ANGLE_UNIT());
#511=DIMENSIONAL_EXPONENTS(0.0,0.0,0.0,0.0,0.0,0.0,0.0);
#512=PLANE_ANGLE_MEASURE_WITH_UNIT(PLANE_ANGLE_MEASURE(0.0174532925),#513);
#513=(NAMED_UNIT(*)PLANE_ANGLE_UNIT()SI_UNIT($,.RADIAN.));
#514=(LENGTH_UNIT()NAMED_UNIT(*)SI_UNIT(.MILLI.,.METRE.));
#515=CARTESIAN_POINT('',(0.0,0.0,0.0));
#516=DIRECTION('',(0.0,0.0,1.0));
#517=DIRECTION('',(1.0,0.0,0.0));
#518=AXIS2_PLACEMENT_3D('PCS',#515,#516,#517);
#519=CARTESIAN_POINT('',(0.0,0.0,0.0));
#520=DIRECTION('',(0.0,0.0,1.0));
#521=DIRECTION('',(1.0,0.0,0.0));
#522=AXIS2_PLACEMENT_3D('MCS',#519,#520,#521);
#523=CARTESIAN_POINT('',(0.0,0.0,-38.0));
#524=DIRECTION('',(0.0,0.0,1.0));
#525=DIRECTION('',(1.0,0.0,0.0));
#526=AXIS2_PLACEMENT_3D('CSW',#523,#524,#525);
#527=CONSTRUCTIVE_GEOMETRY_REPRESENTATION('supplemental geometry',(#518,#522,#526),
     #507);
#528=CONSTRUCTIVE_GEOMETRY_REPRESENTATION_RELATIONSHIP('supplemental geometry',$,
     #92,#527);
ENDSEC;
END-ISO-10303-21;
