ISO-10303-21;
HEADER;
FILE_DESCRIPTION(
/* description */ ('3-D model version:1'),
/* implementation_level */ '2;1');
FILE_NAME(
/* name */ 'C5-391.EH-20047',
/* time_stamp */ '2016-12-02T13:56:17',
/* author */ ('InteractiveCad'),
/* organization */ ('AB Sandvik Coromant'),
/* preprocessor_version */ 'ST-DEVELOPER v11',
/* originating_system */ 'SIEMENS UGS NX 6.0',
/* authorization */ '');
FILE_SCHEMA(('AUTOMOTIVE_DESIGN'));
ENDSEC;
DATA;
#10=SHAPE_REPRESENTATION_RELATIONSHIP('None','relationship between C5_391.EH_20047_635176893626716180_1_stp-None and\X\0D C5_391.EH_20047_635176893626716180_1_stp-None',
     #22,#11);
#11=ADVANCED_BREP_SHAPE_REPRESENTATION('C5_391.EH_20047_635176893626716180_1_stp-None',
     (#32),#437);
#12=SHAPE_DEFINITION_REPRESENTATION(#13,#22);
#13=PRODUCT_DEFINITION_SHAPE('','',#14);
#14=PRODUCT_DEFINITION(' ','',#16,#15);
#15=PRODUCT_DEFINITION_CONTEXT('part definition',#21,'design');
#16=PRODUCT_DEFINITION_FORMATION_WITH_SPECIFIED_SOURCE(' ',' ',#18,.NOT_KNOWN.);
#17=PRODUCT_RELATED_PRODUCT_CATEGORY('part','',(#18));
#18=PRODUCT('C5_391.EH_20047_635176893626716180_1_stp','C5_391.EH_20047_635176893626716180_1_stp',
     ' ',(#19));
#19=PRODUCT_CONTEXT(' ',#21,'mechanical');
#20=APPLICATION_PROTOCOL_DEFINITION('international standard','automotive_design',
     2001,#21);
#21=APPLICATION_CONTEXT('core data for automotive mechanical design processes');
#22=SHAPE_REPRESENTATION('C5_391.EH_20047_635176893626716180_1_stp-None',(#247),
     #437);
#23=PRESENTATION_LAYER_ASSIGNMENT('1','Layer 1',(#32));
#24=STYLED_ITEM('',(#25),#32);
#25=PRESENTATION_STYLE_ASSIGNMENT((#26));
#26=SURFACE_STYLE_USAGE(.BOTH.,#27);
#27=SURFACE_SIDE_STYLE('',(#28));
#28=SURFACE_STYLE_FILL_AREA(#29);
#29=FILL_AREA_STYLE('',(#30));
#30=FILL_AREA_STYLE_COLOUR('',#31);
#31=COLOUR_RGB('TLS_NOCUT',0.499992370489052,0.499992370489052,0.499992370489052);
#32=MANIFOLD_SOLID_BREP('NOCUT',#33);
#33=CLOSED_SHELL('',(#69,#70,#71,#72,#73,#74,#75,#76,#77,#78,#79,#80,#81,#82,#83));
#34=B_SPLINE_CURVE_WITH_KNOTS('',3,(#411,#412,#413,#414),.UNSPECIFIED.,.F.,.F.,
     (4,4),(0.0,1.0),.UNSPECIFIED.);
#35=B_SPLINE_CURVE_WITH_KNOTS('',3,(#419,#420,#421,#422),.UNSPECIFIED.,.F.,.F.,
     (4,4),(0.0,1.0),.UNSPECIFIED.);
#36=LINE('',#393,#42);
#37=LINE('',#397,#43);
#38=LINE('',#401,#44);
#39=LINE('',#405,#45);
#40=LINE('',#409,#46);
#41=LINE('',#426,#47);
#42=VECTOR('',#320,1.0);
#43=VECTOR('',#323,1.0);
#44=VECTOR('',#328,1.0);
#45=VECTOR('',#333,1.0);
#46=VECTOR('',#338,1.0);
#47=VECTOR('',#345,1.0);
#48=CONICAL_SURFACE('',#255,13.3059047744873,75.0);
#49=CONICAL_SURFACE('',#266,28.0,1.43916666666667);
#50=CONICAL_SURFACE('',#268,12.0,1.43916666666667);
#51=CONICAL_SURFACE('',#270,28.0,1.43916666666667);
#52=CONICAL_SURFACE('',#272,12.0,1.43916666666667);
#53=CONICAL_SURFACE('',#276,28.0,1.43916666666667);
#54=CONICAL_SURFACE('',#278,12.0,1.43916666666667);
#55=TOROIDAL_SURFACE('',#253,14.6,5.0);
#56=CYLINDRICAL_SURFACE('',#251,9.6);
#57=CYLINDRICAL_SURFACE('',#257,25.0);
#58=CYLINDRICAL_SURFACE('',#283,5.0);
#59=FACE_BOUND('',#99,.T.);
#60=FACE_BOUND('',#100,.T.);
#61=FACE_BOUND('',#101,.T.);
#62=FACE_BOUND('',#102,.T.);
#63=FACE_BOUND('',#103,.T.);
#64=FACE_BOUND('',#104,.T.);
#65=FACE_BOUND('',#105,.T.);
#66=FACE_BOUND('',#106,.T.);
#67=FACE_BOUND('',#107,.T.);
#68=FACE_BOUND('',#108,.T.);
#69=ADVANCED_FACE('',(#88),#84,.F.);
#70=ADVANCED_FACE('',(#59,#60),#56,.T.);
#71=ADVANCED_FACE('',(#61,#62),#55,.F.);
#72=ADVANCED_FACE('',(#63,#64),#48,.T.);
#73=ADVANCED_FACE('',(#65,#66),#57,.T.);
#74=ADVANCED_FACE('',(#67,#68),#85,.F.);
#75=ADVANCED_FACE('',(#89),#49,.T.);
#76=ADVANCED_FACE('',(#90),#50,.T.);
#77=ADVANCED_FACE('',(#91),#51,.T.);
#78=ADVANCED_FACE('',(#92),#52,.T.);
#79=ADVANCED_FACE('',(#93),#53,.T.);
#80=ADVANCED_FACE('',(#94),#54,.T.);
#81=ADVANCED_FACE('',(#95),#86,.F.);
#82=ADVANCED_FACE('',(#96),#87,.F.);
#83=ADVANCED_FACE('',(#97),#58,.F.);
#84=PLANE('',#249);
#85=PLANE('',#264);
#86=PLANE('',#280);
#87=PLANE('',#282);
#88=FACE_OUTER_BOUND('',#98,.T.);
#89=FACE_OUTER_BOUND('',#109,.T.);
#90=FACE_OUTER_BOUND('',#110,.T.);
#91=FACE_OUTER_BOUND('',#111,.T.);
#92=FACE_OUTER_BOUND('',#112,.T.);
#93=FACE_OUTER_BOUND('',#113,.T.);
#94=FACE_OUTER_BOUND('',#114,.T.);
#95=FACE_OUTER_BOUND('',#115,.T.);
#96=FACE_OUTER_BOUND('',#116,.T.);
#97=FACE_OUTER_BOUND('',#117,.T.);
#98=EDGE_LOOP('',(#118));
#99=EDGE_LOOP('',(#119));
#100=EDGE_LOOP('',(#120));
#101=EDGE_LOOP('',(#121));
#102=EDGE_LOOP('',(#122));
#103=EDGE_LOOP('',(#123));
#104=EDGE_LOOP('',(#124));
#105=EDGE_LOOP('',(#125));
#106=EDGE_LOOP('',(#126));
#107=EDGE_LOOP('',(#127,#128,#129,#130,#131,#132));
#108=EDGE_LOOP('',(#133));
#109=EDGE_LOOP('',(#134,#135,#136,#137));
#110=EDGE_LOOP('',(#138,#139,#140,#141));
#111=EDGE_LOOP('',(#142,#143,#144,#145));
#112=EDGE_LOOP('',(#146,#147,#148,#149));
#113=EDGE_LOOP('',(#150,#151,#152,#153,#154,#155,#156,#157));
#114=EDGE_LOOP('',(#158,#159,#160,#161));
#115=EDGE_LOOP('',(#162,#163,#164,#165,#166,#167,#168,#169));
#116=EDGE_LOOP('',(#170,#171));
#117=EDGE_LOOP('',(#172,#173,#174,#175));
#118=ORIENTED_EDGE('',*,*,#197,.F.);
#119=ORIENTED_EDGE('',*,*,#198,.F.);
#120=ORIENTED_EDGE('',*,*,#197,.T.);
#121=ORIENTED_EDGE('',*,*,#199,.F.);
#122=ORIENTED_EDGE('',*,*,#198,.T.);
#123=ORIENTED_EDGE('',*,*,#200,.F.);
#124=ORIENTED_EDGE('',*,*,#199,.T.);
#125=ORIENTED_EDGE('',*,*,#201,.F.);
#126=ORIENTED_EDGE('',*,*,#200,.T.);
#127=ORIENTED_EDGE('',*,*,#202,.T.);
#128=ORIENTED_EDGE('',*,*,#203,.T.);
#129=ORIENTED_EDGE('',*,*,#204,.T.);
#130=ORIENTED_EDGE('',*,*,#205,.T.);
#131=ORIENTED_EDGE('',*,*,#206,.T.);
#132=ORIENTED_EDGE('',*,*,#207,.T.);
#133=ORIENTED_EDGE('',*,*,#201,.T.);
#134=ORIENTED_EDGE('',*,*,#204,.F.);
#135=ORIENTED_EDGE('',*,*,#208,.F.);
#136=ORIENTED_EDGE('',*,*,#209,.T.);
#137=ORIENTED_EDGE('',*,*,#210,.T.);
#138=ORIENTED_EDGE('',*,*,#205,.F.);
#139=ORIENTED_EDGE('',*,*,#210,.F.);
#140=ORIENTED_EDGE('',*,*,#211,.T.);
#141=ORIENTED_EDGE('',*,*,#212,.T.);
#142=ORIENTED_EDGE('',*,*,#206,.F.);
#143=ORIENTED_EDGE('',*,*,#212,.F.);
#144=ORIENTED_EDGE('',*,*,#213,.T.);
#145=ORIENTED_EDGE('',*,*,#214,.T.);
#146=ORIENTED_EDGE('',*,*,#207,.F.);
#147=ORIENTED_EDGE('',*,*,#214,.F.);
#148=ORIENTED_EDGE('',*,*,#215,.T.);
#149=ORIENTED_EDGE('',*,*,#216,.T.);
#150=ORIENTED_EDGE('',*,*,#217,.F.);
#151=ORIENTED_EDGE('',*,*,#218,.F.);
#152=ORIENTED_EDGE('',*,*,#219,.F.);
#153=ORIENTED_EDGE('',*,*,#220,.T.);
#154=ORIENTED_EDGE('',*,*,#221,.T.);
#155=ORIENTED_EDGE('',*,*,#202,.F.);
#156=ORIENTED_EDGE('',*,*,#216,.F.);
#157=ORIENTED_EDGE('',*,*,#222,.T.);
#158=ORIENTED_EDGE('',*,*,#203,.F.);
#159=ORIENTED_EDGE('',*,*,#221,.F.);
#160=ORIENTED_EDGE('',*,*,#223,.T.);
#161=ORIENTED_EDGE('',*,*,#208,.T.);
#162=ORIENTED_EDGE('',*,*,#220,.F.);
#163=ORIENTED_EDGE('',*,*,#224,.T.);
#164=ORIENTED_EDGE('',*,*,#222,.F.);
#165=ORIENTED_EDGE('',*,*,#215,.F.);
#166=ORIENTED_EDGE('',*,*,#213,.F.);
#167=ORIENTED_EDGE('',*,*,#211,.F.);
#168=ORIENTED_EDGE('',*,*,#209,.F.);
#169=ORIENTED_EDGE('',*,*,#223,.F.);
#170=ORIENTED_EDGE('',*,*,#218,.T.);
#171=ORIENTED_EDGE('',*,*,#225,.F.);
#172=ORIENTED_EDGE('',*,*,#217,.T.);
#173=ORIENTED_EDGE('',*,*,#224,.F.);
#174=ORIENTED_EDGE('',*,*,#219,.T.);
#175=ORIENTED_EDGE('',*,*,#225,.T.);
#176=VERTEX_POINT('',#366);
#177=VERTEX_POINT('',#369);
#178=VERTEX_POINT('',#372);
#179=VERTEX_POINT('',#375);
#180=VERTEX_POINT('',#378);
#181=VERTEX_POINT('',#381);
#182=VERTEX_POINT('',#382);
#183=VERTEX_POINT('',#384);
#184=VERTEX_POINT('',#386);
#185=VERTEX_POINT('',#388);
#186=VERTEX_POINT('',#390);
#187=VERTEX_POINT('',#394);
#188=VERTEX_POINT('',#396);
#189=VERTEX_POINT('',#400);
#190=VERTEX_POINT('',#404);
#191=VERTEX_POINT('',#408);
#192=VERTEX_POINT('',#415);
#193=VERTEX_POINT('',#416);
#194=VERTEX_POINT('',#418);
#195=VERTEX_POINT('',#423);
#196=VERTEX_POINT('',#425);
#197=EDGE_CURVE('',#176,#176,#226,.T.);
#198=EDGE_CURVE('',#177,#177,#227,.T.);
#199=EDGE_CURVE('',#178,#178,#228,.T.);
#200=EDGE_CURVE('',#179,#179,#229,.T.);
#201=EDGE_CURVE('',#180,#180,#230,.T.);
#202=EDGE_CURVE('',#181,#182,#231,.T.);
#203=EDGE_CURVE('',#182,#183,#232,.T.);
#204=EDGE_CURVE('',#183,#184,#233,.T.);
#205=EDGE_CURVE('',#184,#185,#234,.T.);
#206=EDGE_CURVE('',#185,#186,#235,.T.);
#207=EDGE_CURVE('',#186,#181,#236,.T.);
#208=EDGE_CURVE('',#187,#183,#36,.T.);
#209=EDGE_CURVE('',#187,#188,#237,.T.);
#210=EDGE_CURVE('',#188,#184,#37,.T.);
#211=EDGE_CURVE('',#188,#189,#238,.T.);
#212=EDGE_CURVE('',#189,#185,#38,.T.);
#213=EDGE_CURVE('',#189,#190,#239,.T.);
#214=EDGE_CURVE('',#190,#186,#39,.T.);
#215=EDGE_CURVE('',#190,#191,#240,.T.);
#216=EDGE_CURVE('',#191,#181,#40,.T.);
#217=EDGE_CURVE('',#192,#193,#34,.T.);
#218=EDGE_CURVE('',#194,#192,#241,.T.);
#219=EDGE_CURVE('',#195,#194,#35,.T.);
#220=EDGE_CURVE('',#195,#196,#242,.T.);
#221=EDGE_CURVE('',#196,#182,#41,.T.);
#222=EDGE_CURVE('',#191,#193,#243,.T.);
#223=EDGE_CURVE('',#196,#187,#244,.T.);
#224=EDGE_CURVE('',#195,#193,#245,.T.);
#225=EDGE_CURVE('',#194,#192,#246,.T.);
#226=CIRCLE('',#248,9.6);
#227=CIRCLE('',#250,9.6);
#228=CIRCLE('',#252,13.3059047744873);
#229=CIRCLE('',#254,25.0);
#230=CIRCLE('',#256,25.0);
#231=CIRCLE('',#258,28.0);
#232=CIRCLE('',#259,12.0);
#233=CIRCLE('',#260,28.0);
#234=CIRCLE('',#261,12.0);
#235=CIRCLE('',#262,28.0);
#236=CIRCLE('',#263,12.0);
#237=CIRCLE('',#265,27.2462955787619);
#238=CIRCLE('',#267,11.2462955787618);
#239=CIRCLE('',#269,27.2462955787619);
#240=CIRCLE('',#271,11.2462955787618);
#241=CIRCLE('',#273,27.3857308966909);
#242=CIRCLE('',#274,27.2462955787619);
#243=CIRCLE('',#275,27.2462955787619);
#244=CIRCLE('',#277,11.2462955787618);
#245=CIRCLE('',#279,5.0);
#246=CIRCLE('',#281,5.0);
#247=AXIS2_PLACEMENT_3D('',#364,#284,#285);
#248=AXIS2_PLACEMENT_3D('',#365,#286,#287);
#249=AXIS2_PLACEMENT_3D('',#367,#288,#289);
#250=AXIS2_PLACEMENT_3D('',#368,#290,#291);
#251=AXIS2_PLACEMENT_3D('',#370,#292,#293);
#252=AXIS2_PLACEMENT_3D('',#371,#294,#295);
#253=AXIS2_PLACEMENT_3D('',#373,#296,#297);
#254=AXIS2_PLACEMENT_3D('',#374,#298,#299);
#255=AXIS2_PLACEMENT_3D('',#376,#300,#301);
#256=AXIS2_PLACEMENT_3D('',#377,#302,#303);
#257=AXIS2_PLACEMENT_3D('',#379,#304,#305);
#258=AXIS2_PLACEMENT_3D('',#380,#306,#307);
#259=AXIS2_PLACEMENT_3D('',#383,#308,#309);
#260=AXIS2_PLACEMENT_3D('',#385,#310,#311);
#261=AXIS2_PLACEMENT_3D('',#387,#312,#313);
#262=AXIS2_PLACEMENT_3D('',#389,#314,#315);
#263=AXIS2_PLACEMENT_3D('',#391,#316,#317);
#264=AXIS2_PLACEMENT_3D('',#392,#318,#319);
#265=AXIS2_PLACEMENT_3D('',#395,#321,#322);
#266=AXIS2_PLACEMENT_3D('',#398,#324,#325);
#267=AXIS2_PLACEMENT_3D('',#399,#326,#327);
#268=AXIS2_PLACEMENT_3D('',#402,#329,#330);
#269=AXIS2_PLACEMENT_3D('',#403,#331,#332);
#270=AXIS2_PLACEMENT_3D('',#406,#334,#335);
#271=AXIS2_PLACEMENT_3D('',#407,#336,#337);
#272=AXIS2_PLACEMENT_3D('',#410,#339,#340);
#273=AXIS2_PLACEMENT_3D('',#417,#341,#342);
#274=AXIS2_PLACEMENT_3D('',#424,#343,#344);
#275=AXIS2_PLACEMENT_3D('',#427,#346,#347);
#276=AXIS2_PLACEMENT_3D('',#428,#348,#349);
#277=AXIS2_PLACEMENT_3D('',#429,#350,#351);
#278=AXIS2_PLACEMENT_3D('',#430,#352,#353);
#279=AXIS2_PLACEMENT_3D('',#431,#354,#355);
#280=AXIS2_PLACEMENT_3D('',#432,#356,#357);
#281=AXIS2_PLACEMENT_3D('',#433,#358,#359);
#282=AXIS2_PLACEMENT_3D('',#434,#360,#361);
#283=AXIS2_PLACEMENT_3D('',#435,#362,#363);
#284=DIRECTION('',(0.0,0.0,1.0));
#285=DIRECTION('',(1.0,0.0,0.0));
#286=DIRECTION('',(0.0,0.0,1.0));
#287=DIRECTION('',(1.0,0.0,0.0));
#288=DIRECTION('',(0.0,0.0,1.0));
#289=DIRECTION('',(1.0,0.0,0.0));
#290=DIRECTION('',(0.0,0.0,1.0));
#291=DIRECTION('',(1.0,0.0,0.0));
#292=DIRECTION('',(0.0,0.0,1.0));
#293=DIRECTION('',(1.0,0.0,0.0));
#294=DIRECTION('',(0.0,0.0,1.0));
#295=DIRECTION('',(1.0,0.0,0.0));
#296=DIRECTION('',(0.0,0.0,1.0));
#297=DIRECTION('',(1.0,0.0,0.0));
#298=DIRECTION('',(0.0,0.0,1.0));
#299=DIRECTION('',(1.0,0.0,0.0));
#300=DIRECTION('',(0.0,0.0,1.0));
#301=DIRECTION('',(1.0,0.0,1.38949927273397E-17));
#302=DIRECTION('',(0.0,0.0,1.0));
#303=DIRECTION('',(1.0,0.0,0.0));
#304=DIRECTION('',(0.0,0.0,1.0));
#305=DIRECTION('',(1.0,0.0,0.0));
#306=DIRECTION('',(0.0,0.0,-1.0));
#307=DIRECTION('',(-1.0,0.0,0.0));
#308=DIRECTION('',(0.0,0.0,-1.0));
#309=DIRECTION('',(-1.0,0.0,0.0));
#310=DIRECTION('',(0.0,0.0,-1.0));
#311=DIRECTION('',(-1.0,0.0,0.0));
#312=DIRECTION('',(0.0,0.0,-1.0));
#313=DIRECTION('',(-1.0,0.0,0.0));
#314=DIRECTION('',(0.0,0.0,-1.0));
#315=DIRECTION('',(-1.0,0.0,0.0));
#316=DIRECTION('',(0.0,0.0,-1.0));
#317=DIRECTION('',(-1.0,0.0,0.0));
#318=DIRECTION('',(0.0,0.0,-1.0));
#319=DIRECTION('',(-1.0,0.0,0.0));
#320=DIRECTION('',(-0.0248035201341083,0.00394671043216829,-0.999684554679986));
#321=DIRECTION('',(0.0,0.0,-1.0));
#322=DIRECTION('',(-1.0,0.0,0.0));
#323=DIRECTION('',(-0.0157864666720801,0.0195340370709642,-0.999684554679986));
#324=DIRECTION('',(0.0,0.0,-1.0));
#325=DIRECTION('',(-1.0,0.0,0.0));
#326=DIRECTION('',(0.0,0.0,-1.0));
#327=DIRECTION('',(-1.0,0.0,0.0));
#328=DIRECTION('',(0.0158141500870706,0.0195116322049721,-0.999684554679986));
#329=DIRECTION('',(0.0,0.0,-1.0));
#330=DIRECTION('',(-1.0,0.0,0.0));
#331=DIRECTION('',(0.0,0.0,-1.0));
#332=DIRECTION('',(-1.0,0.0,0.0));
#333=DIRECTION('',(0.0248046442023397,0.00393963961217701,-0.999684554679986));
#334=DIRECTION('',(0.0,0.0,-1.0));
#335=DIRECTION('',(-1.0,0.0,0.0));
#336=DIRECTION('',(0.0,0.0,-1.0));
#337=DIRECTION('',(-1.0,0.0,0.0));
#338=DIRECTION('',(0.00902373900588192,-0.0234384997094998,-0.999684554679986));
#339=DIRECTION('',(0.0,0.0,-1.0));
#340=DIRECTION('',(-1.0,0.0,0.0));
#341=DIRECTION('',(0.0,0.0,1.0));
#342=DIRECTION('',(-1.0,0.0,0.0));
#343=DIRECTION('',(0.0,0.0,-1.0));
#344=DIRECTION('',(-1.0,0.0,0.0));
#345=DIRECTION('',(-0.00898380857141531,-0.0234538337555006,-0.999684554679986));
#346=DIRECTION('',(0.0,0.0,-1.0));
#347=DIRECTION('',(-1.0,0.0,0.0));
#348=DIRECTION('',(0.0,0.0,-1.0));
#349=DIRECTION('',(-1.0,0.0,0.0));
#350=DIRECTION('',(0.0,0.0,-1.0));
#351=DIRECTION('',(-1.0,0.0,0.0));
#352=DIRECTION('',(0.0,0.0,-1.0));
#353=DIRECTION('',(-1.0,0.0,0.0));
#354=DIRECTION('',(0.0,0.0,-1.0));
#355=DIRECTION('',(-1.0,0.0,0.0));
#356=DIRECTION('',(0.0,0.0,-1.0));
#357=DIRECTION('',(-1.0,0.0,0.0));
#358=DIRECTION('',(0.0,0.0,-1.0));
#359=DIRECTION('',(-1.0,0.0,0.0));
#360=DIRECTION('',(0.0,0.0,-1.0));
#361=DIRECTION('',(-1.0,0.0,0.0));
#362=DIRECTION('',(0.0,0.0,-1.0));
#363=DIRECTION('',(-1.0,0.0,0.0));
#364=CARTESIAN_POINT('',(0.0,0.0,0.0));
#365=CARTESIAN_POINT('',(0.0,0.0,-47.0));
#366=CARTESIAN_POINT('',(9.6,0.0,-47.0));
#367=CARTESIAN_POINT('',(0.0,0.0,-47.0));
#368=CARTESIAN_POINT('',(0.0,0.0,-27.9630525033341));
#369=CARTESIAN_POINT('',(9.6,0.0,-27.9630525033341));
#370=CARTESIAN_POINT('',(0.0,0.0,-47.0));
#371=CARTESIAN_POINT('',(0.0,0.0,-23.1334233718888));
#372=CARTESIAN_POINT('',(13.3059047744873,0.0,-23.1334233718888));
#373=CARTESIAN_POINT('',(0.0,0.0,-27.9630525033341));
#374=CARTESIAN_POINT('',(0.0,0.0,-20.0));
#375=CARTESIAN_POINT('',(25.0,0.0,-20.0));
#376=CARTESIAN_POINT('',(0.0,0.0,-23.1334233718888));
#377=CARTESIAN_POINT('',(0.0,0.0,0.0));
#378=CARTESIAN_POINT('',(25.0,0.0,0.0));
#379=CARTESIAN_POINT('',(0.0,0.0,-47.0));
#380=CARTESIAN_POINT('',(-0.00990452952675801,11.6313911327719,0.0));
#381=CARTESIAN_POINT('',(10.0501831687922,-14.4989482355205,0.0));
#382=CARTESIAN_POINT('',(-10.0254759056977,-14.5160433495789,0.0));
#383=CARTESIAN_POINT('',(-5.73308817305298,-3.31,0.0));
#384=CARTESIAN_POINT('',(-17.5840002560203,-1.42429514457352,0.0));
#385=CARTESIAN_POINT('',(10.0681279375701,-5.82427314056864,0.0));
#386=CARTESIAN_POINT('',(-7.53136591572022,15.9531880546211,0.0));
#387=CARTESIAN_POINT('',(0.0112743071184957,6.61999039953979,0.0));
#388=CARTESIAN_POINT('',(7.56714143143875,15.9424831991946,0.0));
#389=CARTESIAN_POINT('',(-10.0632151919752,-5.81,0.0));
#390=CARTESIAN_POINT('',(17.5901661656285,-1.41790488594162,0.0));
#391=CARTESIAN_POINT('',(5.7387170123698,-3.30023136339521,0.0));
#392=CARTESIAN_POINT('',(0.0,25.0,0.0));
#393=CARTESIAN_POINT('',(-17.5840002560203,-1.42429514457352,-1.74219201836179E-16));
#394=CARTESIAN_POINT('',(-16.8396598533005,-1.54273381846396,30.0));
#395=CARTESIAN_POINT('',(10.0681279375701,-5.82427314056864,30.0));
#396=CARTESIAN_POINT('',(-7.05762247540669,15.366982026544,30.0));
#397=CARTESIAN_POINT('',(-7.53136591572022,15.9531880546211,0.0));
#398=CARTESIAN_POINT('',(10.0681279375701,-5.82427314056864,0.0));
#399=CARTESIAN_POINT('',(0.0112743071184957,6.61999039953979,30.0));
#400=CARTESIAN_POINT('',(7.09256722661472,15.3569495291895,30.0));
#401=CARTESIAN_POINT('',(7.56714143143875,15.9424831991946,4.35548004590446E-17));
#402=CARTESIAN_POINT('',(0.0112743071184957,6.61999039953979,0.0));
#403=CARTESIAN_POINT('',(-10.0632151919752,-5.81,30.0));
#404=CARTESIAN_POINT('',(16.845792030221,-1.53613136829749,30.0));
#405=CARTESIAN_POINT('',(17.5901661656285,-1.41790488594162,0.0));
#406=CARTESIAN_POINT('',(-10.0632151919752,-5.81,0.0));
#407=CARTESIAN_POINT('',(5.7387170123698,-3.30023136339521,30.0));
#408=CARTESIAN_POINT('',(9.77938557678269,-13.7955713672942,30.0));
#409=CARTESIAN_POINT('',(10.0501831687922,-14.4989482355205,0.0));
#410=CARTESIAN_POINT('',(5.7387170123698,-3.30023136339521,0.0));
#411=CARTESIAN_POINT('',(3.58734998592506,-15.5170529607122,24.45));
#412=CARTESIAN_POINT('',(3.54701774381426,-15.4755117410105,26.3000273089909));
#413=CARTESIAN_POINT('',(3.50538973197555,-15.4340772977189,28.1500293204981));
#414=CARTESIAN_POINT('',(3.46233244950734,-15.3927497994888,30.0));
#415=CARTESIAN_POINT('',(3.58734998592506,-15.5170529607122,24.45));
#416=CARTESIAN_POINT('',(3.46233244950734,-15.3927497994888,30.0));
#417=CARTESIAN_POINT('',(-0.00990452952675801,11.6313911327719,24.45));
#418=CARTESIAN_POINT('',(-3.58960162766305,-15.5193735973709,24.45));
#419=CARTESIAN_POINT('',(-3.46466450317153,-15.3949896143751,30.0));
#420=CARTESIAN_POINT('',(-3.50769505049887,-15.4363449487375,28.1500293204981));
#421=CARTESIAN_POINT('',(-3.54929625833513,-15.4778063038418,26.3000273089909));
#422=CARTESIAN_POINT('',(-3.58960162766305,-15.5193735973709,24.45));
#423=CARTESIAN_POINT('',(-3.46466450317153,-15.3949896143751,30.0));
#424=CARTESIAN_POINT('',(-0.00990452952675801,11.6313911327719,30.0));
#425=CARTESIAN_POINT('',(-9.75587660471742,-13.8122063148152,30.0));
#426=CARTESIAN_POINT('',(-10.0254759056977,-14.5160433495789,0.0));
#427=CARTESIAN_POINT('',(-0.00990452952675801,11.6313911327719,30.0));
#428=CARTESIAN_POINT('',(-0.00990452952675801,11.6313911327719,0.0));
#429=CARTESIAN_POINT('',(-5.73308817305298,-3.31,30.0));
#430=CARTESIAN_POINT('',(-5.73308817305298,-3.31,0.0));
#431=CARTESIAN_POINT('',(0.0,-19.0,30.0));
#432=CARTESIAN_POINT('',(5.03970112234431,0.397858629485572,30.0));
#433=CARTESIAN_POINT('',(0.0,-19.0,24.45));
#434=CARTESIAN_POINT('',(0.0,-19.0,24.45));
#435=CARTESIAN_POINT('',(0.0,-19.0,30.0));
#436=MECHANICAL_DESIGN_GEOMETRIC_PRESENTATION_REPRESENTATION('',(#24),#437);
#437=(GEOMETRIC_REPRESENTATION_CONTEXT(3)GLOBAL_UNCERTAINTY_ASSIGNED_CONTEXT((#438))
     GLOBAL_UNIT_ASSIGNED_CONTEXT((#444,#440,#439))REPRESENTATION_CONTEXT('C5-391',
     'TOP_LEVEL_ASSEMBLY_PART'));
#438=UNCERTAINTY_MEASURE_WITH_UNIT(LENGTH_MEASURE(2.0E-5),#444,'DISTANCE_ACCURACY_VALUE',
     'Maximum Tolerance applied to model');
#439=(NAMED_UNIT(*)SI_UNIT($,.STERADIAN.)SOLID_ANGLE_UNIT());
#440=(CONVERSION_BASED_UNIT('DEGREE',#442)NAMED_UNIT(*)PLANE_ANGLE_UNIT());
#441=DIMENSIONAL_EXPONENTS(0.0,0.0,0.0,0.0,0.0,0.0,0.0);
#442=PLANE_ANGLE_MEASURE_WITH_UNIT(PLANE_ANGLE_MEASURE(0.0174532925),#443);
#443=(NAMED_UNIT(*)PLANE_ANGLE_UNIT()SI_UNIT($,.RADIAN.));
#444=(LENGTH_UNIT()NAMED_UNIT(*)SI_UNIT(.MILLI.,.METRE.));
#445=CARTESIAN_POINT('',(0.0,0.0,0.0));
#446=DIRECTION('',(0.0,0.0,1.0));
#447=DIRECTION('',(1.0,0.0,0.0));
#448=AXIS2_PLACEMENT_3D('PCS',#445,#446,#447);
#449=CARTESIAN_POINT('',(0.0,0.0,0.0));
#450=DIRECTION('',(0.0,0.0,1.0));
#451=DIRECTION('',(1.0,0.0,0.0));
#452=AXIS2_PLACEMENT_3D('MCS',#449,#450,#451);
#453=CARTESIAN_POINT('',(0.0,0.0,-47.0));
#454=DIRECTION('',(0.0,0.0,1.0));
#455=DIRECTION('',(1.0,0.0,0.0));
#456=AXIS2_PLACEMENT_3D('CSW',#453,#454,#455);
#457=CONSTRUCTIVE_GEOMETRY_REPRESENTATION('supplemental geometry',(#448,#452,#456),
     #437);
#458=CONSTRUCTIVE_GEOMETRY_REPRESENTATION_RELATIONSHIP('supplemental geometry',$,
     #22,#457);
ENDSEC;
END-ISO-10303-21;
