ISO-10303-21;
HEADER;
FILE_DESCRIPTION(
/* description */ ('3-D model version:1'),
/* implementation_level */ '2;1');
FILE_NAME(
/* name */ 'C5-391.EH-10056',
/* time_stamp */ '2016-12-02T13:57:27',
/* author */ ('InteractiveCad'),
/* organization */ ('AB Sandvik Coromant'),
/* preprocessor_version */ 'ST-DEVELOPER v11',
/* originating_system */ 'SIEMENS UGS NX 6.0',
/* authorization */ '');
FILE_SCHEMA(('AUTOMOTIVE_DESIGN'));
ENDSEC;
DATA;
#10=SHAPE_REPRESENTATION_RELATIONSHIP('None','relationship between C5_391.EH_10056_635176893125147260_1_stp-None and\X\0D C5_391.EH_10056_635176893125147260_1_stp-None',
     #22,#11);
#11=ADVANCED_BREP_SHAPE_REPRESENTATION('C5_391.EH_10056_635176893125147260_1_stp-None',
     (#32),#457);
#12=SHAPE_DEFINITION_REPRESENTATION(#13,#22);
#13=PRODUCT_DEFINITION_SHAPE('','',#14);
#14=PRODUCT_DEFINITION(' ','',#16,#15);
#15=PRODUCT_DEFINITION_CONTEXT('part definition',#21,'design');
#16=PRODUCT_DEFINITION_FORMATION_WITH_SPECIFIED_SOURCE(' ',' ',#18,.NOT_KNOWN.);
#17=PRODUCT_RELATED_PRODUCT_CATEGORY('part','',(#18));
#18=PRODUCT('C5_391.EH_10056_635176893125147260_1_stp','C5_391.EH_10056_635176893125147260_1_stp',
     ' ',(#19));
#19=PRODUCT_CONTEXT(' ',#21,'mechanical');
#20=APPLICATION_PROTOCOL_DEFINITION('international standard','automotive_design',
     2001,#21);
#21=APPLICATION_CONTEXT('core data for automotive mechanical design processes');
#22=SHAPE_REPRESENTATION('C5_391.EH_10056_635176893125147260_1_stp-None',(#258),
     #457);
#23=PRESENTATION_LAYER_ASSIGNMENT('1','Layer 1',(#32));
#24=STYLED_ITEM('',(#25),#32);
#25=PRESENTATION_STYLE_ASSIGNMENT((#26));
#26=SURFACE_STYLE_USAGE(.BOTH.,#27);
#27=SURFACE_SIDE_STYLE('',(#28));
#28=SURFACE_STYLE_FILL_AREA(#29);
#29=FILL_AREA_STYLE('',(#30));
#30=FILL_AREA_STYLE_COLOUR('',#31);
#31=COLOUR_RGB('TLS_NOCUT',0.499992370489052,0.499992370489052,0.499992370489052);
#32=MANIFOLD_SOLID_BREP('NOCUT',#33);
#33=CLOSED_SHELL('',(#71,#72,#73,#74,#75,#76,#77,#78,#79,#80,#81,#82,#83,#84,#85,
     #86));
#34=TOROIDAL_SURFACE('',#296,12.2959901011074,5.0);
#35=PLANE('',#283);
#36=PLANE('',#284);
#37=PLANE('',#286);
#38=PLANE('',#294);
#39=B_SPLINE_CURVE_WITH_KNOTS('',3,(#414,#415,#416,#417),.UNSPECIFIED.,.F.,.F.,
     (4,4),(0.0,1.0),.UNSPECIFIED.);
#40=B_SPLINE_CURVE_WITH_KNOTS('',3,(#422,#423,#424,#425),.UNSPECIFIED.,.F.,.F.,
     (4,4),(0.0,1.0),.UNSPECIFIED.);
#41=CONICAL_SURFACE('',#264,28.0,1.43916666666667);
#42=CONICAL_SURFACE('',#267,12.0,1.43916666666667);
#43=CONICAL_SURFACE('',#270,28.0,1.43916666666667);
#44=CONICAL_SURFACE('',#273,12.0,1.43916666666667);
#45=CONICAL_SURFACE('',#278,28.0,1.43916666666667);
#46=CONICAL_SURFACE('',#281,12.0,1.43916666666667);
#47=CONICAL_SURFACE('',#289,7.805,75.0074192454057);
#48=CONICAL_SURFACE('',#292,4.8,7.99508603913917);
#49=FACE_OUTER_BOUND('',#104,.T.);
#50=FACE_OUTER_BOUND('',#105,.T.);
#51=FACE_OUTER_BOUND('',#106,.T.);
#52=FACE_OUTER_BOUND('',#107,.T.);
#53=FACE_OUTER_BOUND('',#108,.T.);
#54=FACE_OUTER_BOUND('',#109,.T.);
#55=FACE_OUTER_BOUND('',#110,.T.);
#56=FACE_OUTER_BOUND('',#113,.T.);
#57=FACE_OUTER_BOUND('',#114,.T.);
#58=FACE_OUTER_BOUND('',#119,.T.);
#59=LINE('',#390,#65);
#60=LINE('',#394,#66);
#61=LINE('',#400,#67);
#62=LINE('',#406,#68);
#63=LINE('',#412,#69);
#64=LINE('',#429,#70);
#65=VECTOR('',#307,1.0);
#66=VECTOR('',#310,1.0);
#67=VECTOR('',#317,1.0);
#68=VECTOR('',#324,1.0);
#69=VECTOR('',#331,1.0);
#70=VECTOR('',#338,1.0);
#71=ADVANCED_FACE('',(#90,#91),#87,.T.);
#72=ADVANCED_FACE('',(#49),#41,.T.);
#73=ADVANCED_FACE('',(#50),#42,.T.);
#74=ADVANCED_FACE('',(#51),#43,.T.);
#75=ADVANCED_FACE('',(#52),#44,.T.);
#76=ADVANCED_FACE('',(#53),#45,.T.);
#77=ADVANCED_FACE('',(#54),#46,.T.);
#78=ADVANCED_FACE('',(#55),#35,.F.);
#79=ADVANCED_FACE('',(#92,#93),#36,.T.);
#80=ADVANCED_FACE('',(#56),#37,.F.);
#81=ADVANCED_FACE('',(#57),#88,.F.);
#82=ADVANCED_FACE('',(#94,#95),#47,.T.);
#83=ADVANCED_FACE('',(#96,#97),#48,.T.);
#84=ADVANCED_FACE('',(#58),#38,.T.);
#85=ADVANCED_FACE('',(#98,#99),#89,.T.);
#86=ADVANCED_FACE('',(#100,#101),#34,.F.);
#87=CYLINDRICAL_SURFACE('',#261,25.0);
#88=CYLINDRICAL_SURFACE('',#287,5.0);
#89=CYLINDRICAL_SURFACE('',#295,4.8);
#90=FACE_BOUND('',#102,.T.);
#91=FACE_BOUND('',#103,.T.);
#92=FACE_BOUND('',#111,.T.);
#93=FACE_BOUND('',#112,.T.);
#94=FACE_BOUND('',#115,.T.);
#95=FACE_BOUND('',#116,.T.);
#96=FACE_BOUND('',#117,.T.);
#97=FACE_BOUND('',#118,.T.);
#98=FACE_BOUND('',#120,.T.);
#99=FACE_BOUND('',#121,.T.);
#100=FACE_BOUND('',#122,.T.);
#101=FACE_BOUND('',#123,.T.);
#102=EDGE_LOOP('',(#124));
#103=EDGE_LOOP('',(#125));
#104=EDGE_LOOP('',(#126,#127,#128,#129));
#105=EDGE_LOOP('',(#130,#131,#132,#133));
#106=EDGE_LOOP('',(#134,#135,#136,#137));
#107=EDGE_LOOP('',(#138,#139,#140,#141));
#108=EDGE_LOOP('',(#142,#143,#144,#145,#146,#147,#148,#149));
#109=EDGE_LOOP('',(#150,#151,#152,#153));
#110=EDGE_LOOP('',(#154,#155,#156,#157,#158,#159,#160,#161));
#111=EDGE_LOOP('',(#162,#163,#164,#165,#166,#167));
#112=EDGE_LOOP('',(#168));
#113=EDGE_LOOP('',(#169,#170));
#114=EDGE_LOOP('',(#171,#172,#173,#174));
#115=EDGE_LOOP('',(#175));
#116=EDGE_LOOP('',(#176));
#117=EDGE_LOOP('',(#177));
#118=EDGE_LOOP('',(#178));
#119=EDGE_LOOP('',(#179));
#120=EDGE_LOOP('',(#180));
#121=EDGE_LOOP('',(#181));
#122=EDGE_LOOP('',(#182));
#123=EDGE_LOOP('',(#183));
#124=ORIENTED_EDGE('',*,*,#206,.F.);
#125=ORIENTED_EDGE('',*,*,#207,.T.);
#126=ORIENTED_EDGE('',*,*,#208,.F.);
#127=ORIENTED_EDGE('',*,*,#209,.F.);
#128=ORIENTED_EDGE('',*,*,#210,.T.);
#129=ORIENTED_EDGE('',*,*,#211,.T.);
#130=ORIENTED_EDGE('',*,*,#212,.F.);
#131=ORIENTED_EDGE('',*,*,#211,.F.);
#132=ORIENTED_EDGE('',*,*,#213,.T.);
#133=ORIENTED_EDGE('',*,*,#214,.T.);
#134=ORIENTED_EDGE('',*,*,#215,.F.);
#135=ORIENTED_EDGE('',*,*,#214,.F.);
#136=ORIENTED_EDGE('',*,*,#216,.T.);
#137=ORIENTED_EDGE('',*,*,#217,.T.);
#138=ORIENTED_EDGE('',*,*,#218,.F.);
#139=ORIENTED_EDGE('',*,*,#217,.F.);
#140=ORIENTED_EDGE('',*,*,#219,.T.);
#141=ORIENTED_EDGE('',*,*,#220,.T.);
#142=ORIENTED_EDGE('',*,*,#221,.F.);
#143=ORIENTED_EDGE('',*,*,#222,.F.);
#144=ORIENTED_EDGE('',*,*,#223,.F.);
#145=ORIENTED_EDGE('',*,*,#224,.T.);
#146=ORIENTED_EDGE('',*,*,#225,.T.);
#147=ORIENTED_EDGE('',*,*,#226,.F.);
#148=ORIENTED_EDGE('',*,*,#220,.F.);
#149=ORIENTED_EDGE('',*,*,#227,.T.);
#150=ORIENTED_EDGE('',*,*,#228,.F.);
#151=ORIENTED_EDGE('',*,*,#225,.F.);
#152=ORIENTED_EDGE('',*,*,#229,.T.);
#153=ORIENTED_EDGE('',*,*,#209,.T.);
#154=ORIENTED_EDGE('',*,*,#224,.F.);
#155=ORIENTED_EDGE('',*,*,#230,.T.);
#156=ORIENTED_EDGE('',*,*,#227,.F.);
#157=ORIENTED_EDGE('',*,*,#219,.F.);
#158=ORIENTED_EDGE('',*,*,#216,.F.);
#159=ORIENTED_EDGE('',*,*,#213,.F.);
#160=ORIENTED_EDGE('',*,*,#210,.F.);
#161=ORIENTED_EDGE('',*,*,#229,.F.);
#162=ORIENTED_EDGE('',*,*,#228,.T.);
#163=ORIENTED_EDGE('',*,*,#208,.T.);
#164=ORIENTED_EDGE('',*,*,#212,.T.);
#165=ORIENTED_EDGE('',*,*,#215,.T.);
#166=ORIENTED_EDGE('',*,*,#218,.T.);
#167=ORIENTED_EDGE('',*,*,#226,.T.);
#168=ORIENTED_EDGE('',*,*,#207,.F.);
#169=ORIENTED_EDGE('',*,*,#222,.T.);
#170=ORIENTED_EDGE('',*,*,#231,.F.);
#171=ORIENTED_EDGE('',*,*,#221,.T.);
#172=ORIENTED_EDGE('',*,*,#230,.F.);
#173=ORIENTED_EDGE('',*,*,#223,.T.);
#174=ORIENTED_EDGE('',*,*,#231,.T.);
#175=ORIENTED_EDGE('',*,*,#232,.T.);
#176=ORIENTED_EDGE('',*,*,#206,.T.);
#177=ORIENTED_EDGE('',*,*,#233,.T.);
#178=ORIENTED_EDGE('',*,*,#234,.F.);
#179=ORIENTED_EDGE('',*,*,#235,.T.);
#180=ORIENTED_EDGE('',*,*,#235,.F.);
#181=ORIENTED_EDGE('',*,*,#234,.T.);
#182=ORIENTED_EDGE('',*,*,#232,.F.);
#183=ORIENTED_EDGE('',*,*,#233,.F.);
#184=VERTEX_POINT('',#383);
#185=VERTEX_POINT('',#385);
#186=VERTEX_POINT('',#388);
#187=VERTEX_POINT('',#389);
#188=VERTEX_POINT('',#391);
#189=VERTEX_POINT('',#393);
#190=VERTEX_POINT('',#397);
#191=VERTEX_POINT('',#399);
#192=VERTEX_POINT('',#403);
#193=VERTEX_POINT('',#405);
#194=VERTEX_POINT('',#409);
#195=VERTEX_POINT('',#411);
#196=VERTEX_POINT('',#418);
#197=VERTEX_POINT('',#419);
#198=VERTEX_POINT('',#421);
#199=VERTEX_POINT('',#426);
#200=VERTEX_POINT('',#428);
#201=VERTEX_POINT('',#430);
#202=VERTEX_POINT('',#444);
#203=VERTEX_POINT('',#447);
#204=VERTEX_POINT('',#449);
#205=VERTEX_POINT('',#452);
#206=EDGE_CURVE('',#184,#184,#236,.T.);
#207=EDGE_CURVE('',#185,#185,#237,.T.);
#208=EDGE_CURVE('',#186,#187,#238,.T.);
#209=EDGE_CURVE('',#188,#186,#59,.T.);
#210=EDGE_CURVE('',#188,#189,#239,.T.);
#211=EDGE_CURVE('',#189,#187,#60,.T.);
#212=EDGE_CURVE('',#187,#190,#240,.T.);
#213=EDGE_CURVE('',#189,#191,#241,.T.);
#214=EDGE_CURVE('',#191,#190,#61,.T.);
#215=EDGE_CURVE('',#190,#192,#242,.T.);
#216=EDGE_CURVE('',#191,#193,#243,.T.);
#217=EDGE_CURVE('',#193,#192,#62,.T.);
#218=EDGE_CURVE('',#192,#194,#244,.T.);
#219=EDGE_CURVE('',#193,#195,#245,.T.);
#220=EDGE_CURVE('',#195,#194,#63,.T.);
#221=EDGE_CURVE('',#196,#197,#39,.T.);
#222=EDGE_CURVE('',#198,#196,#246,.T.);
#223=EDGE_CURVE('',#199,#198,#40,.T.);
#224=EDGE_CURVE('',#199,#200,#247,.T.);
#225=EDGE_CURVE('',#200,#201,#64,.T.);
#226=EDGE_CURVE('',#194,#201,#248,.T.);
#227=EDGE_CURVE('',#195,#197,#249,.T.);
#228=EDGE_CURVE('',#201,#186,#250,.T.);
#229=EDGE_CURVE('',#200,#188,#251,.T.);
#230=EDGE_CURVE('',#199,#197,#252,.T.);
#231=EDGE_CURVE('',#198,#196,#253,.T.);
#232=EDGE_CURVE('',#202,#202,#254,.T.);
#233=EDGE_CURVE('',#203,#203,#255,.T.);
#234=EDGE_CURVE('',#204,#204,#256,.T.);
#235=EDGE_CURVE('',#205,#205,#257,.T.);
#236=CIRCLE('',#259,25.0);
#237=CIRCLE('',#260,25.0);
#238=CIRCLE('',#262,28.0);
#239=CIRCLE('',#263,27.2462955787619);
#240=CIRCLE('',#265,12.0);
#241=CIRCLE('',#266,11.2462955787618);
#242=CIRCLE('',#268,28.0);
#243=CIRCLE('',#269,27.2462955787619);
#244=CIRCLE('',#271,12.0);
#245=CIRCLE('',#272,11.2462955787618);
#246=CIRCLE('',#274,27.3857308966909);
#247=CIRCLE('',#275,27.2462955787619);
#248=CIRCLE('',#276,28.0);
#249=CIRCLE('',#277,27.2462955787619);
#250=CIRCLE('',#279,12.0);
#251=CIRCLE('',#280,11.2462955787618);
#252=CIRCLE('',#282,5.0);
#253=CIRCLE('',#285,5.0);
#254=CIRCLE('',#288,11.0025202763762);
#255=CIRCLE('',#290,7.3445900948464);
#256=CIRCLE('',#291,4.8);
#257=CIRCLE('',#293,4.8);
#258=AXIS2_PLACEMENT_3D('',#381,#297,#298);
#259=AXIS2_PLACEMENT_3D('',#382,#299,#300);
#260=AXIS2_PLACEMENT_3D('',#384,#301,#302);
#261=AXIS2_PLACEMENT_3D('',#386,#303,#304);
#262=AXIS2_PLACEMENT_3D('',#387,#305,#306);
#263=AXIS2_PLACEMENT_3D('',#392,#308,#309);
#264=AXIS2_PLACEMENT_3D('',#395,#311,#312);
#265=AXIS2_PLACEMENT_3D('',#396,#313,#314);
#266=AXIS2_PLACEMENT_3D('',#398,#315,#316);
#267=AXIS2_PLACEMENT_3D('',#401,#318,#319);
#268=AXIS2_PLACEMENT_3D('',#402,#320,#321);
#269=AXIS2_PLACEMENT_3D('',#404,#322,#323);
#270=AXIS2_PLACEMENT_3D('',#407,#325,#326);
#271=AXIS2_PLACEMENT_3D('',#408,#327,#328);
#272=AXIS2_PLACEMENT_3D('',#410,#329,#330);
#273=AXIS2_PLACEMENT_3D('',#413,#332,#333);
#274=AXIS2_PLACEMENT_3D('',#420,#334,#335);
#275=AXIS2_PLACEMENT_3D('',#427,#336,#337);
#276=AXIS2_PLACEMENT_3D('',#431,#339,#340);
#277=AXIS2_PLACEMENT_3D('',#432,#341,#342);
#278=AXIS2_PLACEMENT_3D('',#433,#343,#344);
#279=AXIS2_PLACEMENT_3D('',#434,#345,#346);
#280=AXIS2_PLACEMENT_3D('',#435,#347,#348);
#281=AXIS2_PLACEMENT_3D('',#436,#349,#350);
#282=AXIS2_PLACEMENT_3D('',#437,#351,#352);
#283=AXIS2_PLACEMENT_3D('',#438,#353,#354);
#284=AXIS2_PLACEMENT_3D('',#439,#355,#356);
#285=AXIS2_PLACEMENT_3D('',#440,#357,#358);
#286=AXIS2_PLACEMENT_3D('',#441,#359,#360);
#287=AXIS2_PLACEMENT_3D('',#442,#361,#362);
#288=AXIS2_PLACEMENT_3D('',#443,#363,#364);
#289=AXIS2_PLACEMENT_3D('',#445,#365,#366);
#290=AXIS2_PLACEMENT_3D('',#446,#367,#368);
#291=AXIS2_PLACEMENT_3D('',#448,#369,#370);
#292=AXIS2_PLACEMENT_3D('',#450,#371,#372);
#293=AXIS2_PLACEMENT_3D('',#451,#373,#374);
#294=AXIS2_PLACEMENT_3D('',#453,#375,#376);
#295=AXIS2_PLACEMENT_3D('',#454,#377,#378);
#296=AXIS2_PLACEMENT_3D('',#455,#379,#380);
#297=DIRECTION('',(0.0,0.0,1.0));
#298=DIRECTION('',(1.0,0.0,0.0));
#299=DIRECTION('',(0.0,0.0,-1.0));
#300=DIRECTION('',(-1.0,0.0,0.0));
#301=DIRECTION('',(0.0,0.0,-1.0));
#302=DIRECTION('',(-1.0,0.0,0.0));
#303=DIRECTION('',(0.0,0.0,-1.0));
#304=DIRECTION('',(-1.0,0.0,0.0));
#305=DIRECTION('',(0.0,0.0,-1.0));
#306=DIRECTION('',(-1.0,0.0,0.0));
#307=DIRECTION('',(-0.0248035201341083,0.00394671043216829,-0.999684554679986));
#308=DIRECTION('',(0.0,0.0,-1.0));
#309=DIRECTION('',(-1.0,0.0,0.0));
#310=DIRECTION('',(-0.0157864666720801,0.0195340370709642,-0.999684554679986));
#311=DIRECTION('',(0.0,0.0,-1.0));
#312=DIRECTION('',(-1.0,0.0,0.0));
#313=DIRECTION('',(0.0,0.0,-1.0));
#314=DIRECTION('',(-1.0,0.0,0.0));
#315=DIRECTION('',(0.0,0.0,-1.0));
#316=DIRECTION('',(-1.0,0.0,0.0));
#317=DIRECTION('',(0.0158141500870706,0.0195116322049721,-0.999684554679986));
#318=DIRECTION('',(0.0,0.0,-1.0));
#319=DIRECTION('',(-1.0,0.0,0.0));
#320=DIRECTION('',(0.0,0.0,-1.0));
#321=DIRECTION('',(-1.0,0.0,0.0));
#322=DIRECTION('',(0.0,0.0,-1.0));
#323=DIRECTION('',(-1.0,0.0,0.0));
#324=DIRECTION('',(0.0248046442023397,0.00393963961217701,-0.999684554679986));
#325=DIRECTION('',(0.0,0.0,-1.0));
#326=DIRECTION('',(-1.0,0.0,0.0));
#327=DIRECTION('',(0.0,0.0,-1.0));
#328=DIRECTION('',(-1.0,0.0,0.0));
#329=DIRECTION('',(0.0,0.0,-1.0));
#330=DIRECTION('',(-1.0,0.0,0.0));
#331=DIRECTION('',(0.00902373900588192,-0.0234384997094998,-0.999684554679986));
#332=DIRECTION('',(0.0,0.0,-1.0));
#333=DIRECTION('',(-1.0,0.0,0.0));
#334=DIRECTION('',(0.0,0.0,1.0));
#335=DIRECTION('',(-1.0,0.0,0.0));
#336=DIRECTION('',(0.0,0.0,-1.0));
#337=DIRECTION('',(-1.0,0.0,0.0));
#338=DIRECTION('',(-0.00898380857141531,-0.0234538337555006,-0.999684554679986));
#339=DIRECTION('',(0.0,0.0,-1.0));
#340=DIRECTION('',(-1.0,0.0,0.0));
#341=DIRECTION('',(0.0,0.0,-1.0));
#342=DIRECTION('',(-1.0,0.0,0.0));
#343=DIRECTION('',(0.0,0.0,-1.0));
#344=DIRECTION('',(-1.0,0.0,0.0));
#345=DIRECTION('',(0.0,0.0,-1.0));
#346=DIRECTION('',(-1.0,0.0,0.0));
#347=DIRECTION('',(0.0,0.0,-1.0));
#348=DIRECTION('',(-1.0,0.0,0.0));
#349=DIRECTION('',(0.0,0.0,-1.0));
#350=DIRECTION('',(-1.0,0.0,0.0));
#351=DIRECTION('',(0.0,0.0,-1.0));
#352=DIRECTION('',(-1.0,0.0,0.0));
#353=DIRECTION('',(0.0,0.0,-1.0));
#354=DIRECTION('',(-1.0,0.0,0.0));
#355=DIRECTION('',(0.0,0.0,1.0));
#356=DIRECTION('',(1.0,0.0,0.0));
#357=DIRECTION('',(0.0,0.0,-1.0));
#358=DIRECTION('',(-1.0,0.0,0.0));
#359=DIRECTION('',(0.0,0.0,-1.0));
#360=DIRECTION('',(-1.0,0.0,0.0));
#361=DIRECTION('',(0.0,0.0,-1.0));
#362=DIRECTION('',(-1.0,0.0,0.0));
#363=DIRECTION('',(0.0,0.0,1.0));
#364=DIRECTION('',(1.0,0.0,0.0));
#365=DIRECTION('',(0.0,0.0,1.0));
#366=DIRECTION('',(1.0,0.0,3.70886355268703E-18));
#367=DIRECTION('',(0.0,0.0,-1.0));
#368=DIRECTION('',(1.0,0.0,0.0));
#369=DIRECTION('',(0.0,0.0,-1.0));
#370=DIRECTION('',(-1.0,0.0,0.0));
#371=DIRECTION('',(0.0,0.0,1.0));
#372=DIRECTION('',(1.0,0.0,-2.86625786577764E-16));
#373=DIRECTION('',(0.0,0.0,-1.0));
#374=DIRECTION('',(-1.0,0.0,0.0));
#375=DIRECTION('',(0.0,0.0,-1.0));
#376=DIRECTION('',(-1.0,0.0,0.0));
#377=DIRECTION('',(0.0,0.0,-1.0));
#378=DIRECTION('',(-1.0,0.0,0.0));
#379=DIRECTION('',(0.0,0.0,-1.0));
#380=DIRECTION('',(-1.0,0.0,0.0));
#381=CARTESIAN_POINT('',(0.0,0.0,0.0));
#382=CARTESIAN_POINT('',(0.0,0.0,-20.0));
#383=CARTESIAN_POINT('',(-25.0,0.0,-20.0));
#384=CARTESIAN_POINT('',(0.0,0.0,0.0));
#385=CARTESIAN_POINT('',(-25.0,0.0,0.0));
#386=CARTESIAN_POINT('',(0.0,0.0,0.0));
#387=CARTESIAN_POINT('',(10.0681279375701,-5.82427314056864,0.0));
#388=CARTESIAN_POINT('',(-17.5840002560203,-1.42429514457352,0.0));
#389=CARTESIAN_POINT('',(-7.53136591572022,15.9531880546211,0.0));
#390=CARTESIAN_POINT('',(-17.5840002560203,-1.42429514457352,-1.74219201836179E-16));
#391=CARTESIAN_POINT('',(-16.8396598533005,-1.54273381846396,30.0));
#392=CARTESIAN_POINT('',(10.0681279375701,-5.82427314056864,30.0));
#393=CARTESIAN_POINT('',(-7.05762247540669,15.366982026544,30.0));
#394=CARTESIAN_POINT('',(-7.53136591572022,15.9531880546211,0.0));
#395=CARTESIAN_POINT('',(10.0681279375701,-5.82427314056864,0.0));
#396=CARTESIAN_POINT('',(0.0112743071184957,6.61999039953979,0.0));
#397=CARTESIAN_POINT('',(7.56714143143875,15.9424831991946,0.0));
#398=CARTESIAN_POINT('',(0.0112743071184957,6.61999039953979,30.0));
#399=CARTESIAN_POINT('',(7.09256722661472,15.3569495291895,30.0));
#400=CARTESIAN_POINT('',(7.56714143143875,15.9424831991946,4.35548004590446E-17));
#401=CARTESIAN_POINT('',(0.0112743071184957,6.61999039953979,0.0));
#402=CARTESIAN_POINT('',(-10.0632151919752,-5.81,0.0));
#403=CARTESIAN_POINT('',(17.5901661656285,-1.41790488594162,0.0));
#404=CARTESIAN_POINT('',(-10.0632151919752,-5.81,30.0));
#405=CARTESIAN_POINT('',(16.845792030221,-1.53613136829749,30.0));
#406=CARTESIAN_POINT('',(17.5901661656285,-1.41790488594162,0.0));
#407=CARTESIAN_POINT('',(-10.0632151919752,-5.81,0.0));
#408=CARTESIAN_POINT('',(5.7387170123698,-3.30023136339521,0.0));
#409=CARTESIAN_POINT('',(10.0501831687922,-14.4989482355205,0.0));
#410=CARTESIAN_POINT('',(5.7387170123698,-3.30023136339521,30.0));
#411=CARTESIAN_POINT('',(9.77938557678269,-13.7955713672942,30.0));
#412=CARTESIAN_POINT('',(10.0501831687922,-14.4989482355205,0.0));
#413=CARTESIAN_POINT('',(5.7387170123698,-3.30023136339521,0.0));
#414=CARTESIAN_POINT('',(3.58734998592506,-15.5170529607122,24.45));
#415=CARTESIAN_POINT('',(3.54701774381426,-15.4755117410105,26.3000273089909));
#416=CARTESIAN_POINT('',(3.50538973197555,-15.4340772977189,28.1500293204981));
#417=CARTESIAN_POINT('',(3.46233244950734,-15.3927497994888,30.0));
#418=CARTESIAN_POINT('',(3.58734998592506,-15.5170529607122,24.45));
#419=CARTESIAN_POINT('',(3.46233244950734,-15.3927497994888,30.0));
#420=CARTESIAN_POINT('',(-0.00990452952675801,11.6313911327719,24.45));
#421=CARTESIAN_POINT('',(-3.58960162766305,-15.5193735973709,24.45));
#422=CARTESIAN_POINT('',(-3.46466450317153,-15.3949896143751,30.0));
#423=CARTESIAN_POINT('',(-3.50769505049887,-15.4363449487375,28.1500293204981));
#424=CARTESIAN_POINT('',(-3.54929625833513,-15.4778063038418,26.3000273089909));
#425=CARTESIAN_POINT('',(-3.58960162766305,-15.5193735973709,24.45));
#426=CARTESIAN_POINT('',(-3.46466450317153,-15.3949896143751,30.0));
#427=CARTESIAN_POINT('',(-0.00990452952675801,11.6313911327719,30.0));
#428=CARTESIAN_POINT('',(-9.75587660471742,-13.8122063148152,30.0));
#429=CARTESIAN_POINT('',(-10.0254759056977,-14.5160433495789,0.0));
#430=CARTESIAN_POINT('',(-10.0254759056977,-14.5160433495789,0.0));
#431=CARTESIAN_POINT('',(-0.00990452952675801,11.6313911327719,0.0));
#432=CARTESIAN_POINT('',(-0.00990452952675801,11.6313911327719,30.0));
#433=CARTESIAN_POINT('',(-0.00990452952675801,11.6313911327719,0.0));
#434=CARTESIAN_POINT('',(-5.73308817305298,-3.31,0.0));
#435=CARTESIAN_POINT('',(-5.73308817305298,-3.31,30.0));
#436=CARTESIAN_POINT('',(-5.73308817305298,-3.31,0.0));
#437=CARTESIAN_POINT('',(0.0,-19.0,30.0));
#438=CARTESIAN_POINT('',(5.03970112234431,0.397858629485572,30.0));
#439=CARTESIAN_POINT('',(0.0,0.0,0.0));
#440=CARTESIAN_POINT('',(0.0,-19.0,24.45));
#441=CARTESIAN_POINT('',(0.0,-19.0,24.45));
#442=CARTESIAN_POINT('',(0.0,-19.0,30.0));
#443=CARTESIAN_POINT('',(0.0,0.0,-23.7486707837911));
#444=CARTESIAN_POINT('',(11.0025202763762,0.0,-23.7486707837911));
#445=CARTESIAN_POINT('',(0.0,0.0,-24.605));
#446=CARTESIAN_POINT('',(0.0,0.0,-27.8830265959273));
#447=CARTESIAN_POINT('',(7.3445900948464,0.0,-27.8830265959273));
#448=CARTESIAN_POINT('',(0.0,0.0,-46.0));
#449=CARTESIAN_POINT('',(-4.8,0.0,-46.0));
#450=CARTESIAN_POINT('',(0.0,0.0,-46.0));
#451=CARTESIAN_POINT('',(0.0,0.0,-56.0));
#452=CARTESIAN_POINT('',(-4.8,0.0,-56.0));
#453=CARTESIAN_POINT('',(0.0,0.0,-56.0));
#454=CARTESIAN_POINT('',(0.0,0.0,-46.0));
#455=CARTESIAN_POINT('',(0.0,0.0,-28.5784674474727));
#456=MECHANICAL_DESIGN_GEOMETRIC_PRESENTATION_REPRESENTATION('',(#24),#457);
#457=(GEOMETRIC_REPRESENTATION_CONTEXT(3)GLOBAL_UNCERTAINTY_ASSIGNED_CONTEXT((#458))
     GLOBAL_UNIT_ASSIGNED_CONTEXT((#464,#460,#459))REPRESENTATION_CONTEXT('C5-391',
     'TOP_LEVEL_ASSEMBLY_PART'));
#458=UNCERTAINTY_MEASURE_WITH_UNIT(LENGTH_MEASURE(2.0E-5),#464,'DISTANCE_ACCURACY_VALUE',
     'Maximum Tolerance applied to model');
#459=(NAMED_UNIT(*)SI_UNIT($,.STERADIAN.)SOLID_ANGLE_UNIT());
#460=(CONVERSION_BASED_UNIT('DEGREE',#462)NAMED_UNIT(*)PLANE_ANGLE_UNIT());
#461=DIMENSIONAL_EXPONENTS(0.0,0.0,0.0,0.0,0.0,0.0,0.0);
#462=PLANE_ANGLE_MEASURE_WITH_UNIT(PLANE_ANGLE_MEASURE(0.0174532925),#463);
#463=(NAMED_UNIT(*)PLANE_ANGLE_UNIT()SI_UNIT($,.RADIAN.));
#464=(LENGTH_UNIT()NAMED_UNIT(*)SI_UNIT(.MILLI.,.METRE.));
#465=CARTESIAN_POINT('',(0.0,0.0,0.0));
#466=DIRECTION('',(0.0,0.0,1.0));
#467=DIRECTION('',(1.0,0.0,0.0));
#468=AXIS2_PLACEMENT_3D('PCS',#465,#466,#467);
#469=CARTESIAN_POINT('',(0.0,0.0,0.0));
#470=DIRECTION('',(0.0,0.0,1.0));
#471=DIRECTION('',(1.0,0.0,0.0));
#472=AXIS2_PLACEMENT_3D('MCS',#469,#470,#471);
#473=CARTESIAN_POINT('',(0.0,0.0,-56.0));
#474=DIRECTION('',(0.0,0.0,1.0));
#475=DIRECTION('',(1.0,0.0,0.0));
#476=AXIS2_PLACEMENT_3D('CSW',#473,#474,#475);
#477=CONSTRUCTIVE_GEOMETRY_REPRESENTATION('supplemental geometry',(#468,#472,#476),
     #457);
#478=CONSTRUCTIVE_GEOMETRY_REPRESENTATION_RELATIONSHIP('supplemental geometry',$,
     #22,#477);
ENDSEC;
END-ISO-10303-21;
