ISO-10303-21;
HEADER;
FILE_DESCRIPTION(
/* description */ ('3-D model version:1'),
/* implementation_level */ '2;1');
FILE_NAME(
/* name */ 'C5-391.32-08079',
/* time_stamp */ '2016-12-02T14:01:49',
/* author */ ('InteractiveCad'),
/* organization */ ('AB Sandvik Coromant'),
/* preprocessor_version */ 'ST-DEVELOPER v11',
/* originating_system */ 'SIEMENS UGS NX 6.0',
/* authorization */ '');
FILE_SCHEMA(('AUTOMOTIVE_DESIGN'));
ENDSEC;
DATA;
#10=SHAPE_REPRESENTATION_RELATIONSHIP('None','relationship between C5_391.32_08079_635088754475106834_1_stp-None and\X\0D C5_391.32_08079_635088754475106834_1_stp-None',
     #22,#11);
#11=ADVANCED_BREP_SHAPE_REPRESENTATION('C5_391.32_08079_635088754475106834_1_stp-None',
     (#32),#497);
#12=SHAPE_DEFINITION_REPRESENTATION(#13,#22);
#13=PRODUCT_DEFINITION_SHAPE('','',#14);
#14=PRODUCT_DEFINITION(' ','',#16,#15);
#15=PRODUCT_DEFINITION_CONTEXT('part definition',#21,'design');
#16=PRODUCT_DEFINITION_FORMATION_WITH_SPECIFIED_SOURCE(' ',' ',#18,.NOT_KNOWN.);
#17=PRODUCT_RELATED_PRODUCT_CATEGORY('part','',(#18));
#18=PRODUCT('C5_391.32_08079_635088754475106834_1_stp','C5_391.32_08079_635088754475106834_1_stp',
     ' ',(#19));
#19=PRODUCT_CONTEXT(' ',#21,'mechanical');
#20=APPLICATION_PROTOCOL_DEFINITION('international standard','automotive_design',
     2001,#21);
#21=APPLICATION_CONTEXT('core data for automotive mechanical design processes');
#22=SHAPE_REPRESENTATION('C5_391.32_08079_635088754475106834_1_stp-None',(#280),
     #497);
#23=PRESENTATION_LAYER_ASSIGNMENT('1','Layer 1',(#32));
#24=STYLED_ITEM('',(#25),#32);
#25=PRESENTATION_STYLE_ASSIGNMENT((#26));
#26=SURFACE_STYLE_USAGE(.BOTH.,#27);
#27=SURFACE_SIDE_STYLE('',(#28));
#28=SURFACE_STYLE_FILL_AREA(#29);
#29=FILL_AREA_STYLE('',(#30));
#30=FILL_AREA_STYLE_COLOUR('',#31);
#31=COLOUR_RGB('TLS_NOCUT',0.499992370489052,0.499992370489052,0.499992370489052);
#32=MANIFOLD_SOLID_BREP('NOCUT',#33);
#33=CLOSED_SHELL('',(#71,#72,#73,#74,#75,#76,#77,#78,#79,#80,#81,#82,#83,#84,#85,
     #86,#87,#88));
#34=B_SPLINE_CURVE_WITH_KNOTS('',3,(#471,#472,#473,#474),.UNSPECIFIED.,.F.,.F.,
     (4,4),(0.0,1.0),.UNSPECIFIED.);
#35=B_SPLINE_CURVE_WITH_KNOTS('',3,(#479,#480,#481,#482),.UNSPECIFIED.,.F.,.F.,
     (4,4),(0.0,1.0),.UNSPECIFIED.);
#36=LINE('',#453,#42);
#37=LINE('',#457,#43);
#38=LINE('',#461,#44);
#39=LINE('',#465,#45);
#40=LINE('',#469,#46);
#41=LINE('',#486,#47);
#42=VECTOR('',#371,1.0);
#43=VECTOR('',#374,1.0);
#44=VECTOR('',#379,1.0);
#45=VECTOR('',#384,1.0);
#46=VECTOR('',#389,1.0);
#47=VECTOR('',#396,1.0);
#48=FACE_OUTER_BOUND('',#126,.T.);
#49=FACE_OUTER_BOUND('',#127,.T.);
#50=FACE_OUTER_BOUND('',#128,.T.);
#51=FACE_OUTER_BOUND('',#129,.T.);
#52=FACE_OUTER_BOUND('',#130,.T.);
#53=FACE_OUTER_BOUND('',#131,.T.);
#54=FACE_OUTER_BOUND('',#132,.T.);
#55=FACE_OUTER_BOUND('',#133,.T.);
#56=FACE_OUTER_BOUND('',#134,.T.);
#57=FACE_OUTER_BOUND('',#135,.T.);
#58=TOROIDAL_SURFACE('',#294,19.5,1.5);
#59=CONICAL_SURFACE('',#292,25.0,59.9999999999999);
#60=CONICAL_SURFACE('',#298,18.0,20.0);
#61=CONICAL_SURFACE('',#302,6.0,20.0);
#62=CONICAL_SURFACE('',#305,28.0,1.43916666666667);
#63=CONICAL_SURFACE('',#307,12.0,1.43916666666667);
#64=CONICAL_SURFACE('',#309,28.0,1.43916666666667);
#65=CONICAL_SURFACE('',#311,12.0,1.43916666666667);
#66=CONICAL_SURFACE('',#315,28.0,1.43916666666667);
#67=CONICAL_SURFACE('',#317,12.0,1.43916666666667);
#68=CYLINDRICAL_SURFACE('',#290,25.0);
#69=CYLINDRICAL_SURFACE('',#296,18.0);
#70=CYLINDRICAL_SURFACE('',#322,5.0);
#71=ADVANCED_FACE('',(#94,#95),#89,.T.);
#72=ADVANCED_FACE('',(#96,#97),#68,.T.);
#73=ADVANCED_FACE('',(#98,#99),#59,.T.);
#74=ADVANCED_FACE('',(#100,#101),#58,.F.);
#75=ADVANCED_FACE('',(#102,#103),#69,.T.);
#76=ADVANCED_FACE('',(#104,#105),#60,.T.);
#77=ADVANCED_FACE('',(#106,#107),#90,.T.);
#78=ADVANCED_FACE('',(#108,#109),#61,.T.);
#79=ADVANCED_FACE('',(#48),#91,.T.);
#80=ADVANCED_FACE('',(#49),#62,.T.);
#81=ADVANCED_FACE('',(#50),#63,.T.);
#82=ADVANCED_FACE('',(#51),#64,.T.);
#83=ADVANCED_FACE('',(#52),#65,.T.);
#84=ADVANCED_FACE('',(#53),#66,.T.);
#85=ADVANCED_FACE('',(#54),#67,.T.);
#86=ADVANCED_FACE('',(#55),#92,.F.);
#87=ADVANCED_FACE('',(#56),#93,.F.);
#88=ADVANCED_FACE('',(#57),#70,.F.);
#89=PLANE('',#288);
#90=PLANE('',#300);
#91=PLANE('',#303);
#92=PLANE('',#319);
#93=PLANE('',#321);
#94=FACE_BOUND('',#110,.T.);
#95=FACE_BOUND('',#111,.T.);
#96=FACE_BOUND('',#112,.T.);
#97=FACE_BOUND('',#113,.T.);
#98=FACE_BOUND('',#114,.T.);
#99=FACE_BOUND('',#115,.T.);
#100=FACE_BOUND('',#116,.T.);
#101=FACE_BOUND('',#117,.T.);
#102=FACE_BOUND('',#118,.T.);
#103=FACE_BOUND('',#119,.T.);
#104=FACE_BOUND('',#120,.T.);
#105=FACE_BOUND('',#121,.T.);
#106=FACE_BOUND('',#122,.T.);
#107=FACE_BOUND('',#123,.T.);
#108=FACE_BOUND('',#124,.T.);
#109=FACE_BOUND('',#125,.T.);
#110=EDGE_LOOP('',(#136));
#111=EDGE_LOOP('',(#137,#138,#139,#140,#141,#142));
#112=EDGE_LOOP('',(#143));
#113=EDGE_LOOP('',(#144));
#114=EDGE_LOOP('',(#145));
#115=EDGE_LOOP('',(#146));
#116=EDGE_LOOP('',(#147));
#117=EDGE_LOOP('',(#148));
#118=EDGE_LOOP('',(#149));
#119=EDGE_LOOP('',(#150));
#120=EDGE_LOOP('',(#151));
#121=EDGE_LOOP('',(#152));
#122=EDGE_LOOP('',(#153));
#123=EDGE_LOOP('',(#154));
#124=EDGE_LOOP('',(#155));
#125=EDGE_LOOP('',(#156));
#126=EDGE_LOOP('',(#157));
#127=EDGE_LOOP('',(#158,#159,#160,#161));
#128=EDGE_LOOP('',(#162,#163,#164,#165));
#129=EDGE_LOOP('',(#166,#167,#168,#169));
#130=EDGE_LOOP('',(#170,#171,#172,#173));
#131=EDGE_LOOP('',(#174,#175,#176,#177,#178,#179,#180,#181));
#132=EDGE_LOOP('',(#182,#183,#184,#185));
#133=EDGE_LOOP('',(#186,#187,#188,#189,#190,#191,#192,#193));
#134=EDGE_LOOP('',(#194,#195));
#135=EDGE_LOOP('',(#196,#197,#198,#199));
#136=ORIENTED_EDGE('',*,*,#224,.T.);
#137=ORIENTED_EDGE('',*,*,#225,.T.);
#138=ORIENTED_EDGE('',*,*,#226,.T.);
#139=ORIENTED_EDGE('',*,*,#227,.T.);
#140=ORIENTED_EDGE('',*,*,#228,.T.);
#141=ORIENTED_EDGE('',*,*,#229,.T.);
#142=ORIENTED_EDGE('',*,*,#230,.T.);
#143=ORIENTED_EDGE('',*,*,#231,.T.);
#144=ORIENTED_EDGE('',*,*,#224,.F.);
#145=ORIENTED_EDGE('',*,*,#232,.T.);
#146=ORIENTED_EDGE('',*,*,#231,.F.);
#147=ORIENTED_EDGE('',*,*,#233,.T.);
#148=ORIENTED_EDGE('',*,*,#232,.F.);
#149=ORIENTED_EDGE('',*,*,#234,.T.);
#150=ORIENTED_EDGE('',*,*,#233,.F.);
#151=ORIENTED_EDGE('',*,*,#235,.T.);
#152=ORIENTED_EDGE('',*,*,#234,.F.);
#153=ORIENTED_EDGE('',*,*,#236,.T.);
#154=ORIENTED_EDGE('',*,*,#235,.F.);
#155=ORIENTED_EDGE('',*,*,#237,.T.);
#156=ORIENTED_EDGE('',*,*,#236,.F.);
#157=ORIENTED_EDGE('',*,*,#237,.F.);
#158=ORIENTED_EDGE('',*,*,#227,.F.);
#159=ORIENTED_EDGE('',*,*,#238,.F.);
#160=ORIENTED_EDGE('',*,*,#239,.T.);
#161=ORIENTED_EDGE('',*,*,#240,.T.);
#162=ORIENTED_EDGE('',*,*,#228,.F.);
#163=ORIENTED_EDGE('',*,*,#240,.F.);
#164=ORIENTED_EDGE('',*,*,#241,.T.);
#165=ORIENTED_EDGE('',*,*,#242,.T.);
#166=ORIENTED_EDGE('',*,*,#229,.F.);
#167=ORIENTED_EDGE('',*,*,#242,.F.);
#168=ORIENTED_EDGE('',*,*,#243,.T.);
#169=ORIENTED_EDGE('',*,*,#244,.T.);
#170=ORIENTED_EDGE('',*,*,#230,.F.);
#171=ORIENTED_EDGE('',*,*,#244,.F.);
#172=ORIENTED_EDGE('',*,*,#245,.T.);
#173=ORIENTED_EDGE('',*,*,#246,.T.);
#174=ORIENTED_EDGE('',*,*,#247,.F.);
#175=ORIENTED_EDGE('',*,*,#248,.F.);
#176=ORIENTED_EDGE('',*,*,#249,.F.);
#177=ORIENTED_EDGE('',*,*,#250,.T.);
#178=ORIENTED_EDGE('',*,*,#251,.T.);
#179=ORIENTED_EDGE('',*,*,#225,.F.);
#180=ORIENTED_EDGE('',*,*,#246,.F.);
#181=ORIENTED_EDGE('',*,*,#252,.T.);
#182=ORIENTED_EDGE('',*,*,#226,.F.);
#183=ORIENTED_EDGE('',*,*,#251,.F.);
#184=ORIENTED_EDGE('',*,*,#253,.T.);
#185=ORIENTED_EDGE('',*,*,#238,.T.);
#186=ORIENTED_EDGE('',*,*,#250,.F.);
#187=ORIENTED_EDGE('',*,*,#254,.T.);
#188=ORIENTED_EDGE('',*,*,#252,.F.);
#189=ORIENTED_EDGE('',*,*,#245,.F.);
#190=ORIENTED_EDGE('',*,*,#243,.F.);
#191=ORIENTED_EDGE('',*,*,#241,.F.);
#192=ORIENTED_EDGE('',*,*,#239,.F.);
#193=ORIENTED_EDGE('',*,*,#253,.F.);
#194=ORIENTED_EDGE('',*,*,#248,.T.);
#195=ORIENTED_EDGE('',*,*,#255,.F.);
#196=ORIENTED_EDGE('',*,*,#247,.T.);
#197=ORIENTED_EDGE('',*,*,#254,.F.);
#198=ORIENTED_EDGE('',*,*,#249,.T.);
#199=ORIENTED_EDGE('',*,*,#255,.T.);
#200=VERTEX_POINT('',#417);
#201=VERTEX_POINT('',#419);
#202=VERTEX_POINT('',#420);
#203=VERTEX_POINT('',#422);
#204=VERTEX_POINT('',#424);
#205=VERTEX_POINT('',#426);
#206=VERTEX_POINT('',#428);
#207=VERTEX_POINT('',#432);
#208=VERTEX_POINT('',#435);
#209=VERTEX_POINT('',#438);
#210=VERTEX_POINT('',#441);
#211=VERTEX_POINT('',#444);
#212=VERTEX_POINT('',#447);
#213=VERTEX_POINT('',#450);
#214=VERTEX_POINT('',#454);
#215=VERTEX_POINT('',#456);
#216=VERTEX_POINT('',#460);
#217=VERTEX_POINT('',#464);
#218=VERTEX_POINT('',#468);
#219=VERTEX_POINT('',#475);
#220=VERTEX_POINT('',#476);
#221=VERTEX_POINT('',#478);
#222=VERTEX_POINT('',#483);
#223=VERTEX_POINT('',#485);
#224=EDGE_CURVE('',#200,#200,#256,.T.);
#225=EDGE_CURVE('',#201,#202,#257,.T.);
#226=EDGE_CURVE('',#202,#203,#258,.T.);
#227=EDGE_CURVE('',#203,#204,#259,.T.);
#228=EDGE_CURVE('',#204,#205,#260,.T.);
#229=EDGE_CURVE('',#205,#206,#261,.T.);
#230=EDGE_CURVE('',#206,#201,#262,.T.);
#231=EDGE_CURVE('',#207,#207,#263,.T.);
#232=EDGE_CURVE('',#208,#208,#264,.T.);
#233=EDGE_CURVE('',#209,#209,#265,.T.);
#234=EDGE_CURVE('',#210,#210,#266,.T.);
#235=EDGE_CURVE('',#211,#211,#267,.T.);
#236=EDGE_CURVE('',#212,#212,#268,.T.);
#237=EDGE_CURVE('',#213,#213,#269,.T.);
#238=EDGE_CURVE('',#214,#203,#36,.T.);
#239=EDGE_CURVE('',#214,#215,#270,.T.);
#240=EDGE_CURVE('',#215,#204,#37,.T.);
#241=EDGE_CURVE('',#215,#216,#271,.T.);
#242=EDGE_CURVE('',#216,#205,#38,.T.);
#243=EDGE_CURVE('',#216,#217,#272,.T.);
#244=EDGE_CURVE('',#217,#206,#39,.T.);
#245=EDGE_CURVE('',#217,#218,#273,.T.);
#246=EDGE_CURVE('',#218,#201,#40,.T.);
#247=EDGE_CURVE('',#219,#220,#34,.T.);
#248=EDGE_CURVE('',#221,#219,#274,.T.);
#249=EDGE_CURVE('',#222,#221,#35,.T.);
#250=EDGE_CURVE('',#222,#223,#275,.T.);
#251=EDGE_CURVE('',#223,#202,#41,.T.);
#252=EDGE_CURVE('',#218,#220,#276,.T.);
#253=EDGE_CURVE('',#223,#214,#277,.T.);
#254=EDGE_CURVE('',#222,#220,#278,.T.);
#255=EDGE_CURVE('',#221,#219,#279,.T.);
#256=CIRCLE('',#281,25.0);
#257=CIRCLE('',#282,28.0);
#258=CIRCLE('',#283,12.0);
#259=CIRCLE('',#284,28.0);
#260=CIRCLE('',#285,12.0);
#261=CIRCLE('',#286,28.0);
#262=CIRCLE('',#287,12.0);
#263=CIRCLE('',#289,25.0);
#264=CIRCLE('',#291,18.75);
#265=CIRCLE('',#293,18.0);
#266=CIRCLE('',#295,18.0);
#267=CIRCLE('',#297,12.1764762517408);
#268=CIRCLE('',#299,6.0);
#269=CIRCLE('',#301,4.90808929720139);
#270=CIRCLE('',#304,27.2462955787619);
#271=CIRCLE('',#306,11.2462955787618);
#272=CIRCLE('',#308,27.2462955787619);
#273=CIRCLE('',#310,11.2462955787618);
#274=CIRCLE('',#312,27.3857308966909);
#275=CIRCLE('',#313,27.2462955787619);
#276=CIRCLE('',#314,27.2462955787619);
#277=CIRCLE('',#316,11.2462955787618);
#278=CIRCLE('',#318,5.0);
#279=CIRCLE('',#320,5.0);
#280=AXIS2_PLACEMENT_3D('',#415,#323,#324);
#281=AXIS2_PLACEMENT_3D('',#416,#325,#326);
#282=AXIS2_PLACEMENT_3D('',#418,#327,#328);
#283=AXIS2_PLACEMENT_3D('',#421,#329,#330);
#284=AXIS2_PLACEMENT_3D('',#423,#331,#332);
#285=AXIS2_PLACEMENT_3D('',#425,#333,#334);
#286=AXIS2_PLACEMENT_3D('',#427,#335,#336);
#287=AXIS2_PLACEMENT_3D('',#429,#337,#338);
#288=AXIS2_PLACEMENT_3D('',#430,#339,#340);
#289=AXIS2_PLACEMENT_3D('',#431,#341,#342);
#290=AXIS2_PLACEMENT_3D('',#433,#343,#344);
#291=AXIS2_PLACEMENT_3D('',#434,#345,#346);
#292=AXIS2_PLACEMENT_3D('',#436,#347,#348);
#293=AXIS2_PLACEMENT_3D('',#437,#349,#350);
#294=AXIS2_PLACEMENT_3D('',#439,#351,#352);
#295=AXIS2_PLACEMENT_3D('',#440,#353,#354);
#296=AXIS2_PLACEMENT_3D('',#442,#355,#356);
#297=AXIS2_PLACEMENT_3D('',#443,#357,#358);
#298=AXIS2_PLACEMENT_3D('',#445,#359,#360);
#299=AXIS2_PLACEMENT_3D('',#446,#361,#362);
#300=AXIS2_PLACEMENT_3D('',#448,#363,#364);
#301=AXIS2_PLACEMENT_3D('',#449,#365,#366);
#302=AXIS2_PLACEMENT_3D('',#451,#367,#368);
#303=AXIS2_PLACEMENT_3D('',#452,#369,#370);
#304=AXIS2_PLACEMENT_3D('',#455,#372,#373);
#305=AXIS2_PLACEMENT_3D('',#458,#375,#376);
#306=AXIS2_PLACEMENT_3D('',#459,#377,#378);
#307=AXIS2_PLACEMENT_3D('',#462,#380,#381);
#308=AXIS2_PLACEMENT_3D('',#463,#382,#383);
#309=AXIS2_PLACEMENT_3D('',#466,#385,#386);
#310=AXIS2_PLACEMENT_3D('',#467,#387,#388);
#311=AXIS2_PLACEMENT_3D('',#470,#390,#391);
#312=AXIS2_PLACEMENT_3D('',#477,#392,#393);
#313=AXIS2_PLACEMENT_3D('',#484,#394,#395);
#314=AXIS2_PLACEMENT_3D('',#487,#397,#398);
#315=AXIS2_PLACEMENT_3D('',#488,#399,#400);
#316=AXIS2_PLACEMENT_3D('',#489,#401,#402);
#317=AXIS2_PLACEMENT_3D('',#490,#403,#404);
#318=AXIS2_PLACEMENT_3D('',#491,#405,#406);
#319=AXIS2_PLACEMENT_3D('',#492,#407,#408);
#320=AXIS2_PLACEMENT_3D('',#493,#409,#410);
#321=AXIS2_PLACEMENT_3D('',#494,#411,#412);
#322=AXIS2_PLACEMENT_3D('',#495,#413,#414);
#323=DIRECTION('',(0.0,0.0,1.0));
#324=DIRECTION('',(1.0,0.0,0.0));
#325=DIRECTION('',(0.0,0.0,1.0));
#326=DIRECTION('',(1.0,0.0,0.0));
#327=DIRECTION('',(0.0,0.0,-1.0));
#328=DIRECTION('',(-1.0,0.0,0.0));
#329=DIRECTION('',(0.0,0.0,-1.0));
#330=DIRECTION('',(-1.0,0.0,0.0));
#331=DIRECTION('',(0.0,0.0,-1.0));
#332=DIRECTION('',(-1.0,0.0,0.0));
#333=DIRECTION('',(0.0,0.0,-1.0));
#334=DIRECTION('',(-1.0,0.0,0.0));
#335=DIRECTION('',(0.0,0.0,-1.0));
#336=DIRECTION('',(-1.0,0.0,0.0));
#337=DIRECTION('',(0.0,0.0,-1.0));
#338=DIRECTION('',(-1.0,0.0,0.0));
#339=DIRECTION('',(0.0,0.0,1.0));
#340=DIRECTION('',(1.0,0.0,0.0));
#341=DIRECTION('',(0.0,0.0,1.0));
#342=DIRECTION('',(1.0,0.0,0.0));
#343=DIRECTION('',(0.0,0.0,1.0));
#344=DIRECTION('',(1.0,0.0,0.0));
#345=DIRECTION('',(0.0,0.0,1.0));
#346=DIRECTION('',(1.0,0.0,0.0));
#347=DIRECTION('',(0.0,0.0,1.0));
#348=DIRECTION('',(1.0,0.0,-7.89834178273783E-18));
#349=DIRECTION('',(0.0,0.0,1.0));
#350=DIRECTION('',(1.0,0.0,0.0));
#351=DIRECTION('',(0.0,0.0,1.0));
#352=DIRECTION('',(1.0,0.0,0.0));
#353=DIRECTION('',(0.0,0.0,1.0));
#354=DIRECTION('',(1.0,0.0,0.0));
#355=DIRECTION('',(0.0,0.0,1.0));
#356=DIRECTION('',(1.0,0.0,0.0));
#357=DIRECTION('',(0.0,0.0,1.0));
#358=DIRECTION('',(1.0,0.0,0.0));
#359=DIRECTION('',(0.0,0.0,1.0));
#360=DIRECTION('',(1.0,0.0,-1.45328473926508E-16));
#361=DIRECTION('',(0.0,0.0,1.0));
#362=DIRECTION('',(1.0,0.0,0.0));
#363=DIRECTION('',(0.0,0.0,-1.0));
#364=DIRECTION('',(-1.0,0.0,0.0));
#365=DIRECTION('',(0.0,0.0,1.0));
#366=DIRECTION('',(1.0,0.0,0.0));
#367=DIRECTION('',(0.0,0.0,1.0));
#368=DIRECTION('',(1.0,0.0,1.125316567859E-16));
#369=DIRECTION('',(0.0,0.0,-1.0));
#370=DIRECTION('',(-1.0,0.0,0.0));
#371=DIRECTION('',(-0.0248035201341083,0.00394671043216829,-0.999684554679986));
#372=DIRECTION('',(0.0,0.0,-1.0));
#373=DIRECTION('',(-1.0,0.0,0.0));
#374=DIRECTION('',(-0.0157864666720801,0.0195340370709642,-0.999684554679986));
#375=DIRECTION('',(0.0,0.0,-1.0));
#376=DIRECTION('',(1.0,0.0,0.0));
#377=DIRECTION('',(0.0,0.0,-1.0));
#378=DIRECTION('',(-1.0,0.0,0.0));
#379=DIRECTION('',(0.0158141500870706,0.0195116322049721,-0.999684554679986));
#380=DIRECTION('',(0.0,0.0,-1.0));
#381=DIRECTION('',(1.0,0.0,0.0));
#382=DIRECTION('',(0.0,0.0,-1.0));
#383=DIRECTION('',(-1.0,0.0,0.0));
#384=DIRECTION('',(0.0248046442023397,0.00393963961217701,-0.999684554679986));
#385=DIRECTION('',(0.0,0.0,-1.0));
#386=DIRECTION('',(1.0,0.0,0.0));
#387=DIRECTION('',(0.0,0.0,-1.0));
#388=DIRECTION('',(-1.0,0.0,0.0));
#389=DIRECTION('',(0.00902373900588192,-0.0234384997094998,-0.999684554679986));
#390=DIRECTION('',(0.0,0.0,-1.0));
#391=DIRECTION('',(1.0,0.0,0.0));
#392=DIRECTION('',(0.0,0.0,1.0));
#393=DIRECTION('',(-1.0,0.0,0.0));
#394=DIRECTION('',(0.0,0.0,-1.0));
#395=DIRECTION('',(-1.0,0.0,0.0));
#396=DIRECTION('',(-0.00898380857141531,-0.0234538337555006,-0.999684554679986));
#397=DIRECTION('',(0.0,0.0,-1.0));
#398=DIRECTION('',(-1.0,0.0,0.0));
#399=DIRECTION('',(0.0,0.0,-1.0));
#400=DIRECTION('',(1.0,0.0,0.0));
#401=DIRECTION('',(0.0,0.0,-1.0));
#402=DIRECTION('',(-1.0,0.0,0.0));
#403=DIRECTION('',(0.0,0.0,-1.0));
#404=DIRECTION('',(1.0,0.0,0.0));
#405=DIRECTION('',(0.0,0.0,-1.0));
#406=DIRECTION('',(-1.0,0.0,0.0));
#407=DIRECTION('',(0.0,0.0,-1.0));
#408=DIRECTION('',(1.0,0.0,0.0));
#409=DIRECTION('',(0.0,0.0,-1.0));
#410=DIRECTION('',(-1.0,0.0,0.0));
#411=DIRECTION('',(0.0,0.0,-1.0));
#412=DIRECTION('',(1.0,0.0,0.0));
#413=DIRECTION('',(0.0,0.0,-1.0));
#414=DIRECTION('',(1.0,0.0,0.0));
#415=CARTESIAN_POINT('',(0.0,0.0,0.0));
#416=CARTESIAN_POINT('',(0.0,0.0,0.0));
#417=CARTESIAN_POINT('',(25.0,0.0,0.0));
#418=CARTESIAN_POINT('',(-0.00990452952675801,11.6313911327719,0.0));
#419=CARTESIAN_POINT('',(10.0501831687922,-14.4989482355205,0.0));
#420=CARTESIAN_POINT('',(-10.0254759056977,-14.5160433495789,0.0));
#421=CARTESIAN_POINT('',(-5.73308817305298,-3.31,0.0));
#422=CARTESIAN_POINT('',(-17.5840002560203,-1.42429514457352,0.0));
#423=CARTESIAN_POINT('',(10.0681279375701,-5.82427314056864,0.0));
#424=CARTESIAN_POINT('',(-7.53136591572022,15.9531880546211,0.0));
#425=CARTESIAN_POINT('',(0.0112743071184957,6.61999039953979,0.0));
#426=CARTESIAN_POINT('',(7.56714143143875,15.9424831991946,0.0));
#427=CARTESIAN_POINT('',(-10.0632151919752,-5.81,0.0));
#428=CARTESIAN_POINT('',(17.5901661656285,-1.41790488594162,0.0));
#429=CARTESIAN_POINT('',(5.7387170123698,-3.30023136339521,0.0));
#430=CARTESIAN_POINT('',(-17.3194211018027,0.0,0.0));
#431=CARTESIAN_POINT('',(0.0,0.0,-20.0));
#432=CARTESIAN_POINT('',(25.0,0.0,-20.0));
#433=CARTESIAN_POINT('',(0.0,0.0,-79.0));
#434=CARTESIAN_POINT('',(0.0,0.0,-23.6084391824352));
#435=CARTESIAN_POINT('',(18.75,0.0,-23.6084391824352));
#436=CARTESIAN_POINT('',(0.0,0.0,-20.0));
#437=CARTESIAN_POINT('',(0.0,0.0,-24.9074772881118));
#438=CARTESIAN_POINT('',(18.0,0.0,-24.9074772881118));
#439=CARTESIAN_POINT('',(0.0,0.0,-24.9074772881118));
#440=CARTESIAN_POINT('',(0.0,0.0,-60.0));
#441=CARTESIAN_POINT('',(18.0,0.0,-60.0));
#442=CARTESIAN_POINT('',(0.0,0.0,-79.0));
#443=CARTESIAN_POINT('',(0.0,0.0,-76.0));
#444=CARTESIAN_POINT('',(12.1764762517408,0.0,-76.0));
#445=CARTESIAN_POINT('',(0.0,0.0,-60.0));
#446=CARTESIAN_POINT('',(0.0,0.0,-76.0));
#447=CARTESIAN_POINT('',(6.0,0.0,-76.0));
#448=CARTESIAN_POINT('',(-12.1764762517408,0.0,-76.0));
#449=CARTESIAN_POINT('',(0.0,0.0,-79.0));
#450=CARTESIAN_POINT('',(4.90808929720139,0.0,-79.0));
#451=CARTESIAN_POINT('',(0.0,0.0,-76.0));
#452=CARTESIAN_POINT('',(-4.90808929720139,0.0,-79.0));
#453=CARTESIAN_POINT('',(-17.5840002560203,-1.42429514457352,-1.74219201836179E-16));
#454=CARTESIAN_POINT('',(-16.8396598533005,-1.54273381846396,30.0));
#455=CARTESIAN_POINT('',(10.0681279375701,-5.82427314056864,30.0));
#456=CARTESIAN_POINT('',(-7.05762247540669,15.366982026544,30.0));
#457=CARTESIAN_POINT('',(-7.53136591572022,15.9531880546211,0.0));
#458=CARTESIAN_POINT('',(10.0681279375701,-5.82427314056864,0.0));
#459=CARTESIAN_POINT('',(0.0112743071184957,6.61999039953979,30.0));
#460=CARTESIAN_POINT('',(7.09256722661472,15.3569495291895,30.0));
#461=CARTESIAN_POINT('',(7.56714143143875,15.9424831991946,4.35548004590446E-17));
#462=CARTESIAN_POINT('',(0.0112743071184957,6.61999039953979,0.0));
#463=CARTESIAN_POINT('',(-10.0632151919752,-5.81,30.0));
#464=CARTESIAN_POINT('',(16.845792030221,-1.53613136829749,30.0));
#465=CARTESIAN_POINT('',(17.5901661656285,-1.41790488594162,0.0));
#466=CARTESIAN_POINT('',(-10.0632151919752,-5.81,0.0));
#467=CARTESIAN_POINT('',(5.7387170123698,-3.30023136339521,30.0));
#468=CARTESIAN_POINT('',(9.77938557678269,-13.7955713672942,30.0));
#469=CARTESIAN_POINT('',(10.0501831687922,-14.4989482355205,0.0));
#470=CARTESIAN_POINT('',(5.7387170123698,-3.30023136339521,0.0));
#471=CARTESIAN_POINT('',(3.58734998592506,-15.5170529607122,24.45));
#472=CARTESIAN_POINT('',(3.54701774381426,-15.4755117410105,26.3000273089909));
#473=CARTESIAN_POINT('',(3.50538973197555,-15.4340772977189,28.1500293204981));
#474=CARTESIAN_POINT('',(3.46233244950734,-15.3927497994888,30.0));
#475=CARTESIAN_POINT('',(3.58734998592506,-15.5170529607122,24.45));
#476=CARTESIAN_POINT('',(3.46233244950734,-15.3927497994888,30.0));
#477=CARTESIAN_POINT('',(-0.00990452952675801,11.6313911327719,24.45));
#478=CARTESIAN_POINT('',(-3.58960162766305,-15.5193735973709,24.45));
#479=CARTESIAN_POINT('',(-3.46466450317153,-15.3949896143751,30.0));
#480=CARTESIAN_POINT('',(-3.50769505049887,-15.4363449487375,28.1500293204981));
#481=CARTESIAN_POINT('',(-3.54929625833513,-15.4778063038418,26.3000273089909));
#482=CARTESIAN_POINT('',(-3.58960162766305,-15.5193735973709,24.45));
#483=CARTESIAN_POINT('',(-3.46466450317153,-15.3949896143751,30.0));
#484=CARTESIAN_POINT('',(-0.00990452952675801,11.6313911327719,30.0));
#485=CARTESIAN_POINT('',(-9.75587660471742,-13.8122063148152,30.0));
#486=CARTESIAN_POINT('',(-10.0254759056977,-14.5160433495789,0.0));
#487=CARTESIAN_POINT('',(-0.00990452952675801,11.6313911327719,30.0));
#488=CARTESIAN_POINT('',(-0.00990452952675801,11.6313911327719,0.0));
#489=CARTESIAN_POINT('',(-5.73308817305298,-3.31,30.0));
#490=CARTESIAN_POINT('',(-5.73308817305298,-3.31,0.0));
#491=CARTESIAN_POINT('',(0.0,-19.0,30.0));
#492=CARTESIAN_POINT('',(5.03970112234431,0.397858629485572,30.0));
#493=CARTESIAN_POINT('',(0.0,-19.0,24.45));
#494=CARTESIAN_POINT('',(0.0,-19.0,24.45));
#495=CARTESIAN_POINT('',(0.0,-19.0,30.0));
#496=MECHANICAL_DESIGN_GEOMETRIC_PRESENTATION_REPRESENTATION('',(#24),#497);
#497=(GEOMETRIC_REPRESENTATION_CONTEXT(3)GLOBAL_UNCERTAINTY_ASSIGNED_CONTEXT((#498))
     GLOBAL_UNIT_ASSIGNED_CONTEXT((#504,#500,#499))REPRESENTATION_CONTEXT('C5-391',
     'TOP_LEVEL_ASSEMBLY_PART'));
#498=UNCERTAINTY_MEASURE_WITH_UNIT(LENGTH_MEASURE(2.0E-5),#504,'DISTANCE_ACCURACY_VALUE',
     'Maximum Tolerance applied to model');
#499=(NAMED_UNIT(*)SI_UNIT($,.STERADIAN.)SOLID_ANGLE_UNIT());
#500=(CONVERSION_BASED_UNIT('DEGREE',#502)NAMED_UNIT(*)PLANE_ANGLE_UNIT());
#501=DIMENSIONAL_EXPONENTS(0.0,0.0,0.0,0.0,0.0,0.0,0.0);
#502=PLANE_ANGLE_MEASURE_WITH_UNIT(PLANE_ANGLE_MEASURE(0.0174532925),#503);
#503=(NAMED_UNIT(*)PLANE_ANGLE_UNIT()SI_UNIT($,.RADIAN.));
#504=(LENGTH_UNIT()NAMED_UNIT(*)SI_UNIT(.MILLI.,.METRE.));
#505=CARTESIAN_POINT('',(0.0,0.0,0.0));
#506=DIRECTION('',(0.0,0.0,1.0));
#507=DIRECTION('',(1.0,0.0,0.0));
#508=AXIS2_PLACEMENT_3D('PCS',#505,#506,#507);
#509=CARTESIAN_POINT('',(0.0,0.0,0.0));
#510=DIRECTION('',(0.0,0.0,1.0));
#511=DIRECTION('',(1.0,0.0,0.0));
#512=AXIS2_PLACEMENT_3D('MCS',#509,#510,#511);
#513=CARTESIAN_POINT('',(0.0,0.0,-76.0));
#514=DIRECTION('',(0.0,0.0,1.0));
#515=DIRECTION('',(1.0,0.0,0.0));
#516=AXIS2_PLACEMENT_3D('CSW',#513,#514,#515);
#517=CONSTRUCTIVE_GEOMETRY_REPRESENTATION('supplemental geometry',(#508,#512,#516),
     #497);
#518=CONSTRUCTIVE_GEOMETRY_REPRESENTATION_RELATIONSHIP('supplemental geometry',$,
     #22,#517);
ENDSEC;
END-ISO-10303-21;
