ISO-10303-21;
HEADER;
FILE_DESCRIPTION(
/* description */ ('3-D model version:1'),
/* implementation_level */ '2;1');
FILE_NAME(
/* name */ 'C4-391.EH-20139',
/* time_stamp */ '2016-12-02T13:57:27',
/* author */ ('InteractiveCad'),
/* organization */ ('AB Sandvik Coromant'),
/* preprocessor_version */ 'ST-DEVELOPER v11',
/* originating_system */ 'SIEMENS UGS NX 6.0',
/* authorization */ '');
FILE_SCHEMA(('AUTOMOTIVE_DESIGN'));
ENDSEC;
DATA;
#10=SHAPE_REPRESENTATION_RELATIONSHIP('None','relationship between ds680184tkwd-None and ds680184tkwd-None',
     #22,#11);
#11=ADVANCED_BREP_SHAPE_REPRESENTATION('ds680184tkwd-None',(#32),#397);
#12=SHAPE_DEFINITION_REPRESENTATION(#13,#22);
#13=PRODUCT_DEFINITION_SHAPE('','',#14);
#14=PRODUCT_DEFINITION(' ','',#16,#15);
#15=PRODUCT_DEFINITION_CONTEXT('part definition',#21,'design');
#16=PRODUCT_DEFINITION_FORMATION_WITH_SPECIFIED_SOURCE(' ',' ',#18,.NOT_KNOWN.);
#17=PRODUCT_RELATED_PRODUCT_CATEGORY('part','',(#18));
#18=PRODUCT('ds680184tkwd','ds680184tkwd',' ',(#19));
#19=PRODUCT_CONTEXT(' ',#21,'mechanical');
#20=APPLICATION_PROTOCOL_DEFINITION('international standard','automotive_design',
     2001,#21);
#21=APPLICATION_CONTEXT('core data for automotive mechanical design processes');
#22=SHAPE_REPRESENTATION('ds680184tkwd-None',(#225),#397);
#23=PRESENTATION_LAYER_ASSIGNMENT('1','Layer 1',(#32));
#24=STYLED_ITEM('',(#25),#32);
#25=PRESENTATION_STYLE_ASSIGNMENT((#26));
#26=SURFACE_STYLE_USAGE(.BOTH.,#27);
#27=SURFACE_SIDE_STYLE('',(#28));
#28=SURFACE_STYLE_FILL_AREA(#29);
#29=FILL_AREA_STYLE('',(#30));
#30=FILL_AREA_STYLE_COLOUR('',#31);
#31=COLOUR_RGB('Medium Gray',0.490196078431373,0.490196078431373,0.490196078431373);
#32=MANIFOLD_SOLID_BREP('NOCUT',#33);
#33=CLOSED_SHELL('',(#67,#68,#69,#70,#71,#72,#73,#74,#75,#76,#77,#78,#79));
#34=B_SPLINE_CURVE_WITH_KNOTS('',3,(#371,#372,#373,#374),.UNSPECIFIED.,.F.,.F.,
     (4,4),(0.0,1.0),.UNSPECIFIED.);
#35=B_SPLINE_CURVE_WITH_KNOTS('',3,(#379,#380,#381,#382),.UNSPECIFIED.,.F.,.F.,
     (4,4),(0.0,1.0),.UNSPECIFIED.);
#36=LINE('',#353,#42);
#37=LINE('',#357,#43);
#38=LINE('',#361,#44);
#39=LINE('',#365,#45);
#40=LINE('',#369,#46);
#41=LINE('',#386,#47);
#42=VECTOR('',#286,1.0);
#43=VECTOR('',#289,1.0);
#44=VECTOR('',#294,1.0);
#45=VECTOR('',#299,1.0);
#46=VECTOR('',#304,1.0);
#47=VECTOR('',#311,1.0);
#48=CYLINDRICAL_SURFACE('',#238,20.0);
#49=CYLINDRICAL_SURFACE('',#257,4.0);
#50=CONICAL_SURFACE('',#237,9.6,4.99467180762166);
#51=CONICAL_SURFACE('',#240,20.0,1.43916666666667);
#52=CONICAL_SURFACE('',#242,8.5,1.43916666666667);
#53=CONICAL_SURFACE('',#244,20.0,1.43916666666667);
#54=CONICAL_SURFACE('',#246,8.5,1.43916666666667);
#55=CONICAL_SURFACE('',#250,20.0,1.43916666666667);
#56=CONICAL_SURFACE('',#252,8.5,1.43916666666667);
#57=FACE_OUTER_BOUND('',#92,.T.);
#58=FACE_OUTER_BOUND('',#97,.T.);
#59=FACE_OUTER_BOUND('',#98,.T.);
#60=FACE_OUTER_BOUND('',#99,.T.);
#61=FACE_OUTER_BOUND('',#100,.T.);
#62=FACE_OUTER_BOUND('',#101,.T.);
#63=FACE_OUTER_BOUND('',#102,.T.);
#64=FACE_OUTER_BOUND('',#103,.T.);
#65=FACE_OUTER_BOUND('',#104,.T.);
#66=FACE_OUTER_BOUND('',#105,.T.);
#67=ADVANCED_FACE('',(#84,#85),#80,.T.);
#68=ADVANCED_FACE('',(#57),#81,.T.);
#69=ADVANCED_FACE('',(#86,#87),#50,.T.);
#70=ADVANCED_FACE('',(#88,#89),#48,.T.);
#71=ADVANCED_FACE('',(#58),#51,.T.);
#72=ADVANCED_FACE('',(#59),#52,.T.);
#73=ADVANCED_FACE('',(#60),#53,.T.);
#74=ADVANCED_FACE('',(#61),#54,.T.);
#75=ADVANCED_FACE('',(#62),#55,.T.);
#76=ADVANCED_FACE('',(#63),#56,.T.);
#77=ADVANCED_FACE('',(#64),#82,.F.);
#78=ADVANCED_FACE('',(#65),#83,.F.);
#79=ADVANCED_FACE('',(#66),#49,.F.);
#80=PLANE('',#233);
#81=PLANE('',#235);
#82=PLANE('',#254);
#83=PLANE('',#256);
#84=FACE_BOUND('',#90,.T.);
#85=FACE_BOUND('',#91,.T.);
#86=FACE_BOUND('',#93,.T.);
#87=FACE_BOUND('',#94,.T.);
#88=FACE_BOUND('',#95,.T.);
#89=FACE_BOUND('',#96,.T.);
#90=EDGE_LOOP('',(#106));
#91=EDGE_LOOP('',(#107,#108,#109,#110,#111,#112));
#92=EDGE_LOOP('',(#113));
#93=EDGE_LOOP('',(#114));
#94=EDGE_LOOP('',(#115));
#95=EDGE_LOOP('',(#116));
#96=EDGE_LOOP('',(#117));
#97=EDGE_LOOP('',(#118,#119,#120,#121));
#98=EDGE_LOOP('',(#122,#123,#124,#125));
#99=EDGE_LOOP('',(#126,#127,#128,#129));
#100=EDGE_LOOP('',(#130,#131,#132,#133));
#101=EDGE_LOOP('',(#134,#135,#136,#137,#138,#139,#140,#141));
#102=EDGE_LOOP('',(#142,#143,#144,#145));
#103=EDGE_LOOP('',(#146,#147,#148,#149,#150,#151,#152,#153));
#104=EDGE_LOOP('',(#154,#155));
#105=EDGE_LOOP('',(#156,#157,#158,#159));
#106=ORIENTED_EDGE('',*,*,#179,.F.);
#107=ORIENTED_EDGE('',*,*,#180,.T.);
#108=ORIENTED_EDGE('',*,*,#181,.T.);
#109=ORIENTED_EDGE('',*,*,#182,.T.);
#110=ORIENTED_EDGE('',*,*,#183,.T.);
#111=ORIENTED_EDGE('',*,*,#184,.T.);
#112=ORIENTED_EDGE('',*,*,#185,.T.);
#113=ORIENTED_EDGE('',*,*,#186,.T.);
#114=ORIENTED_EDGE('',*,*,#187,.T.);
#115=ORIENTED_EDGE('',*,*,#186,.F.);
#116=ORIENTED_EDGE('',*,*,#179,.T.);
#117=ORIENTED_EDGE('',*,*,#187,.F.);
#118=ORIENTED_EDGE('',*,*,#183,.F.);
#119=ORIENTED_EDGE('',*,*,#188,.F.);
#120=ORIENTED_EDGE('',*,*,#189,.T.);
#121=ORIENTED_EDGE('',*,*,#190,.T.);
#122=ORIENTED_EDGE('',*,*,#184,.F.);
#123=ORIENTED_EDGE('',*,*,#190,.F.);
#124=ORIENTED_EDGE('',*,*,#191,.T.);
#125=ORIENTED_EDGE('',*,*,#192,.T.);
#126=ORIENTED_EDGE('',*,*,#185,.F.);
#127=ORIENTED_EDGE('',*,*,#192,.F.);
#128=ORIENTED_EDGE('',*,*,#193,.T.);
#129=ORIENTED_EDGE('',*,*,#194,.T.);
#130=ORIENTED_EDGE('',*,*,#180,.F.);
#131=ORIENTED_EDGE('',*,*,#194,.F.);
#132=ORIENTED_EDGE('',*,*,#195,.T.);
#133=ORIENTED_EDGE('',*,*,#196,.T.);
#134=ORIENTED_EDGE('',*,*,#197,.F.);
#135=ORIENTED_EDGE('',*,*,#198,.F.);
#136=ORIENTED_EDGE('',*,*,#199,.F.);
#137=ORIENTED_EDGE('',*,*,#200,.T.);
#138=ORIENTED_EDGE('',*,*,#201,.T.);
#139=ORIENTED_EDGE('',*,*,#181,.F.);
#140=ORIENTED_EDGE('',*,*,#196,.F.);
#141=ORIENTED_EDGE('',*,*,#202,.T.);
#142=ORIENTED_EDGE('',*,*,#182,.F.);
#143=ORIENTED_EDGE('',*,*,#201,.F.);
#144=ORIENTED_EDGE('',*,*,#203,.T.);
#145=ORIENTED_EDGE('',*,*,#188,.T.);
#146=ORIENTED_EDGE('',*,*,#200,.F.);
#147=ORIENTED_EDGE('',*,*,#204,.T.);
#148=ORIENTED_EDGE('',*,*,#202,.F.);
#149=ORIENTED_EDGE('',*,*,#195,.F.);
#150=ORIENTED_EDGE('',*,*,#193,.F.);
#151=ORIENTED_EDGE('',*,*,#191,.F.);
#152=ORIENTED_EDGE('',*,*,#189,.F.);
#153=ORIENTED_EDGE('',*,*,#203,.F.);
#154=ORIENTED_EDGE('',*,*,#198,.T.);
#155=ORIENTED_EDGE('',*,*,#205,.F.);
#156=ORIENTED_EDGE('',*,*,#197,.T.);
#157=ORIENTED_EDGE('',*,*,#204,.F.);
#158=ORIENTED_EDGE('',*,*,#199,.T.);
#159=ORIENTED_EDGE('',*,*,#205,.T.);
#160=VERTEX_POINT('',#332);
#161=VERTEX_POINT('',#334);
#162=VERTEX_POINT('',#335);
#163=VERTEX_POINT('',#337);
#164=VERTEX_POINT('',#339);
#165=VERTEX_POINT('',#341);
#166=VERTEX_POINT('',#343);
#167=VERTEX_POINT('',#347);
#168=VERTEX_POINT('',#350);
#169=VERTEX_POINT('',#354);
#170=VERTEX_POINT('',#356);
#171=VERTEX_POINT('',#360);
#172=VERTEX_POINT('',#364);
#173=VERTEX_POINT('',#368);
#174=VERTEX_POINT('',#375);
#175=VERTEX_POINT('',#376);
#176=VERTEX_POINT('',#378);
#177=VERTEX_POINT('',#383);
#178=VERTEX_POINT('',#385);
#179=EDGE_CURVE('',#160,#160,#206,.T.);
#180=EDGE_CURVE('',#161,#162,#207,.T.);
#181=EDGE_CURVE('',#162,#163,#208,.T.);
#182=EDGE_CURVE('',#163,#164,#209,.T.);
#183=EDGE_CURVE('',#164,#165,#210,.T.);
#184=EDGE_CURVE('',#165,#166,#211,.T.);
#185=EDGE_CURVE('',#166,#161,#212,.T.);
#186=EDGE_CURVE('',#167,#167,#213,.T.);
#187=EDGE_CURVE('',#168,#168,#214,.T.);
#188=EDGE_CURVE('',#169,#164,#36,.T.);
#189=EDGE_CURVE('',#169,#170,#215,.T.);
#190=EDGE_CURVE('',#170,#165,#37,.T.);
#191=EDGE_CURVE('',#170,#171,#216,.T.);
#192=EDGE_CURVE('',#171,#166,#38,.T.);
#193=EDGE_CURVE('',#171,#172,#217,.T.);
#194=EDGE_CURVE('',#172,#161,#39,.T.);
#195=EDGE_CURVE('',#172,#173,#218,.T.);
#196=EDGE_CURVE('',#173,#162,#40,.T.);
#197=EDGE_CURVE('',#174,#175,#34,.T.);
#198=EDGE_CURVE('',#176,#174,#219,.T.);
#199=EDGE_CURVE('',#177,#176,#35,.T.);
#200=EDGE_CURVE('',#177,#178,#220,.T.);
#201=EDGE_CURVE('',#178,#163,#41,.T.);
#202=EDGE_CURVE('',#173,#175,#221,.T.);
#203=EDGE_CURVE('',#178,#169,#222,.T.);
#204=EDGE_CURVE('',#177,#175,#223,.T.);
#205=EDGE_CURVE('',#176,#174,#224,.T.);
#206=CIRCLE('',#226,20.0);
#207=CIRCLE('',#227,8.5);
#208=CIRCLE('',#228,20.0);
#209=CIRCLE('',#229,8.5);
#210=CIRCLE('',#230,20.0);
#211=CIRCLE('',#231,8.5);
#212=CIRCLE('',#232,20.0);
#213=CIRCLE('',#234,9.6);
#214=CIRCLE('',#236,20.0);
#215=CIRCLE('',#239,19.3970364630094);
#216=CIRCLE('',#241,7.89703646300946);
#217=CIRCLE('',#243,19.3970364630094);
#218=CIRCLE('',#245,7.89703646300946);
#219=CIRCLE('',#247,19.5025550819828);
#220=CIRCLE('',#248,19.3970364630094);
#221=CIRCLE('',#249,19.3970364630094);
#222=CIRCLE('',#251,7.89703646300946);
#223=CIRCLE('',#253,4.0);
#224=CIRCLE('',#255,4.0);
#225=AXIS2_PLACEMENT_3D('',#330,#258,#259);
#226=AXIS2_PLACEMENT_3D('',#331,#260,#261);
#227=AXIS2_PLACEMENT_3D('',#333,#262,#263);
#228=AXIS2_PLACEMENT_3D('',#336,#264,#265);
#229=AXIS2_PLACEMENT_3D('',#338,#266,#267);
#230=AXIS2_PLACEMENT_3D('',#340,#268,#269);
#231=AXIS2_PLACEMENT_3D('',#342,#270,#271);
#232=AXIS2_PLACEMENT_3D('',#344,#272,#273);
#233=AXIS2_PLACEMENT_3D('',#345,#274,#275);
#234=AXIS2_PLACEMENT_3D('',#346,#276,#277);
#235=AXIS2_PLACEMENT_3D('',#348,#278,#279);
#236=AXIS2_PLACEMENT_3D('',#349,#280,#281);
#237=AXIS2_PLACEMENT_3D('',#351,#282,#283);
#238=AXIS2_PLACEMENT_3D('',#352,#284,#285);
#239=AXIS2_PLACEMENT_3D('',#355,#287,#288);
#240=AXIS2_PLACEMENT_3D('',#358,#290,#291);
#241=AXIS2_PLACEMENT_3D('',#359,#292,#293);
#242=AXIS2_PLACEMENT_3D('',#362,#295,#296);
#243=AXIS2_PLACEMENT_3D('',#363,#297,#298);
#244=AXIS2_PLACEMENT_3D('',#366,#300,#301);
#245=AXIS2_PLACEMENT_3D('',#367,#302,#303);
#246=AXIS2_PLACEMENT_3D('',#370,#305,#306);
#247=AXIS2_PLACEMENT_3D('',#377,#307,#308);
#248=AXIS2_PLACEMENT_3D('',#384,#309,#310);
#249=AXIS2_PLACEMENT_3D('',#387,#312,#313);
#250=AXIS2_PLACEMENT_3D('',#388,#314,#315);
#251=AXIS2_PLACEMENT_3D('',#389,#316,#317);
#252=AXIS2_PLACEMENT_3D('',#390,#318,#319);
#253=AXIS2_PLACEMENT_3D('',#391,#320,#321);
#254=AXIS2_PLACEMENT_3D('',#392,#322,#323);
#255=AXIS2_PLACEMENT_3D('',#393,#324,#325);
#256=AXIS2_PLACEMENT_3D('',#394,#326,#327);
#257=AXIS2_PLACEMENT_3D('',#395,#328,#329);
#258=DIRECTION('',(0.0,0.0,1.0));
#259=DIRECTION('',(1.0,0.0,0.0));
#260=DIRECTION('',(0.0,0.0,-1.0));
#261=DIRECTION('',(-1.0,0.0,0.0));
#262=DIRECTION('',(0.0,0.0,-1.0));
#263=DIRECTION('',(-1.0,0.0,0.0));
#264=DIRECTION('',(0.0,0.0,-1.0));
#265=DIRECTION('',(-1.0,0.0,0.0));
#266=DIRECTION('',(0.0,0.0,-1.0));
#267=DIRECTION('',(-1.0,0.0,0.0));
#268=DIRECTION('',(0.0,0.0,-1.0));
#269=DIRECTION('',(-1.0,0.0,0.0));
#270=DIRECTION('',(0.0,0.0,-1.0));
#271=DIRECTION('',(-1.0,0.0,0.0));
#272=DIRECTION('',(0.0,0.0,-1.0));
#273=DIRECTION('',(-1.0,0.0,0.0));
#274=DIRECTION('',(0.0,0.0,1.0));
#275=DIRECTION('',(1.0,0.0,0.0));
#276=DIRECTION('',(0.0,0.0,-1.0));
#277=DIRECTION('',(-1.0,0.0,0.0));
#278=DIRECTION('',(0.0,0.0,-1.0));
#279=DIRECTION('',(-1.0,0.0,0.0));
#280=DIRECTION('',(0.0,0.0,-1.0));
#281=DIRECTION('',(-1.0,0.0,0.0));
#282=DIRECTION('',(0.0,0.0,1.0));
#283=DIRECTION('',(1.0,0.0,0.0));
#284=DIRECTION('',(0.0,0.0,-1.0));
#285=DIRECTION('',(-1.0,0.0,0.0));
#286=DIRECTION('',(-0.0251112246842899,4.66400186113526E-4,-0.999684554679986));
#287=DIRECTION('',(0.0,0.0,-1.0));
#288=DIRECTION('',(-1.0,0.0,0.0));
#289=DIRECTION('',(-0.0130940393650178,0.0214321549869783,-0.999684554679986));
#290=DIRECTION('',(0.0,0.0,-1.0));
#291=DIRECTION('',(-1.0,0.0,0.0));
#292=DIRECTION('',(0.0,0.0,-1.0));
#293=DIRECTION('',(-1.0,0.0,0.0));
#294=DIRECTION('',(0.0129628683279737,0.0215117451405068,-0.999684554679986));
#295=DIRECTION('',(0.0,0.0,-1.0));
#296=DIRECTION('',(-1.0,0.0,0.0));
#297=DIRECTION('',(0.0,0.0,-1.0));
#298=DIRECTION('',(-1.0,0.0,0.0));
#299=DIRECTION('',(0.0251111519354021,4.70300707684483E-4,-0.999684554679986));
#300=DIRECTION('',(0.0,0.0,-1.0));
#301=DIRECTION('',(-1.0,0.0,0.0));
#302=DIRECTION('',(0.0,0.0,-1.0));
#303=DIRECTION('',(-1.0,0.0,0.0));
#304=DIRECTION('',(0.0120137709940597,-0.0220558482217481,-0.999684554679986));
#305=DIRECTION('',(0.0,0.0,-1.0));
#306=DIRECTION('',(-1.0,0.0,0.0));
#307=DIRECTION('',(0.0,0.0,1.0));
#308=DIRECTION('',(-1.0,0.0,0.0));
#309=DIRECTION('',(0.0,0.0,-1.0));
#310=DIRECTION('',(-1.0,0.0,0.0));
#311=DIRECTION('',(-0.0121516979326409,-0.0219801585897907,-0.999684554679986));
#312=DIRECTION('',(0.0,0.0,-1.0));
#313=DIRECTION('',(-1.0,0.0,0.0));
#314=DIRECTION('',(0.0,0.0,-1.0));
#315=DIRECTION('',(-1.0,0.0,0.0));
#316=DIRECTION('',(0.0,0.0,-1.0));
#317=DIRECTION('',(-1.0,0.0,0.0));
#318=DIRECTION('',(0.0,0.0,-1.0));
#319=DIRECTION('',(-1.0,0.0,0.0));
#320=DIRECTION('',(0.0,0.0,-1.0));
#321=DIRECTION('',(-1.0,0.0,0.0));
#322=DIRECTION('',(0.0,0.0,-1.0));
#323=DIRECTION('',(-1.0,0.0,0.0));
#324=DIRECTION('',(0.0,0.0,-1.0));
#325=DIRECTION('',(-1.0,0.0,0.0));
#326=DIRECTION('',(0.0,0.0,-1.0));
#327=DIRECTION('',(-1.0,0.0,0.0));
#328=DIRECTION('',(0.0,0.0,-1.0));
#329=DIRECTION('',(-1.0,0.0,0.0));
#330=CARTESIAN_POINT('',(0.0,0.0,0.0));
#331=CARTESIAN_POINT('',(0.0,0.0,0.0));
#332=CARTESIAN_POINT('',(-20.0,0.0,0.0));
#333=CARTESIAN_POINT('',(5.522408337495,-3.23465703807463,0.0));
#334=CARTESIAN_POINT('',(14.0209179723354,-3.07549050099937,0.0));
#335=CARTESIAN_POINT('',(9.58829702338366,-10.6991429007421,0.0));
#336=CARTESIAN_POINT('',(0.0215001154103373,6.86435324671078,0.0));
#337=CARTESIAN_POINT('',(-9.65513066655617,-10.6388697910471,0.0));
#338=CARTESIAN_POINT('',(-5.54256258422041,-3.2,0.0));
#339=CARTESIAN_POINT('',(-14.0410968398797,-3.04215353857228,0.0));
#340=CARTESIAN_POINT('',(5.95545434990689,-3.41355697722574,0.0));
#341=CARTESIAN_POINT('',(-4.47158103907076,13.653280251652,0.0));
#342=CARTESIAN_POINT('',(-0.0400909987552516,6.39987442937897,0.0));
#343=CARTESIAN_POINT('',(4.34700608320455,13.6802163989199,0.0));
#344=CARTESIAN_POINT('',(-5.97557528611263,-3.45,0.0));
#345=CARTESIAN_POINT('',(0.0,-20.0,0.0));
#346=CARTESIAN_POINT('',(0.0,0.0,-139.0));
#347=CARTESIAN_POINT('',(-9.6,0.0,-139.0));
#348=CARTESIAN_POINT('',(0.0,0.0,-139.0));
#349=CARTESIAN_POINT('',(0.0,0.0,-20.0));
#350=CARTESIAN_POINT('',(-20.0,0.0,-20.0));
#351=CARTESIAN_POINT('',(0.0,0.0,-139.0));
#352=CARTESIAN_POINT('',(0.0,0.0,0.0));
#353=CARTESIAN_POINT('',(-14.0410968398797,-3.04215353857228,-1.30664401377134E-16));
#354=CARTESIAN_POINT('',(-13.4382372782294,-3.05335067512333,24.0));
#355=CARTESIAN_POINT('',(5.95545434990689,-3.41355697722574,24.0));
#356=CARTESIAN_POINT('',(-4.15722493214758,13.1387462246137,24.0));
#357=CARTESIAN_POINT('',(-4.47158103907076,13.653280251652,0.0));
#358=CARTESIAN_POINT('',(5.95545434990689,-3.41355697722574,0.0));
#359=CARTESIAN_POINT('',(-0.0400909987552516,6.39987442937897,24.0));
#360=CARTESIAN_POINT('',(4.03579907453875,13.1637716054546,24.0));
#361=CARTESIAN_POINT('',(4.34700608320455,13.6802163989199,0.0));
#362=CARTESIAN_POINT('',(-0.0400909987552516,6.39987442937897,0.0));
#363=CARTESIAN_POINT('',(-5.97557528611263,-3.45,24.0));
#364=CARTESIAN_POINT('',(13.4180601572094,-3.08678127960707,24.0));
#365=CARTESIAN_POINT('',(14.0209179723354,-3.07549050099937,8.71096009180893E-17));
#366=CARTESIAN_POINT('',(-5.97557528611263,-3.45,0.0));
#367=CARTESIAN_POINT('',(5.522408337495,-3.23465703807463,24.0));
#368=CARTESIAN_POINT('',(9.29987553831857,-10.1696355127927,24.0));
#369=CARTESIAN_POINT('',(9.58829702338366,-10.6991429007421,0.0));
#370=CARTESIAN_POINT('',(5.522408337495,-3.23465703807463,0.0));
#371=CARTESIAN_POINT('',(3.04217367114143,-12.4028516879828,19.8));
#372=CARTESIAN_POINT('',(3.01536690869658,-12.3714515455493,21.2000133982658));
#373=CARTESIAN_POINT('',(2.98779256558135,-12.3401358046305,22.600014237919));
#374=CARTESIAN_POINT('',(2.95939263898617,-12.30890445946,24.0));
#375=CARTESIAN_POINT('',(3.04217367114143,-12.4028516879828,19.8));
#376=CARTESIAN_POINT('',(2.95939263898617,-12.30890445946,24.0));
#377=CARTESIAN_POINT('',(0.0215001154103373,6.86435324671078,19.8));
#378=CARTESIAN_POINT('',(-3.03706002783089,-12.39687372812,19.8));
#379=CARTESIAN_POINT('',(-2.95409439161902,-12.303089485095,24.0));
#380=CARTESIAN_POINT('',(-2.98255568535731,-12.3342649162952,22.600014237919));
#381=CARTESIAN_POINT('',(-3.01019156319168,-12.365526366739,21.2000133982658));
#382=CARTESIAN_POINT('',(-3.03706002783089,-12.39687372812,19.8));
#383=CARTESIAN_POINT('',(-2.95409439161902,-12.303089485095,24.0));
#384=CARTESIAN_POINT('',(0.0215001154103373,6.86435324671078,24.0));
#385=CARTESIAN_POINT('',(-9.36339789043387,-10.1111795274681,24.0));
#386=CARTESIAN_POINT('',(-9.65513066655617,-10.6388697910471,0.0));
#387=CARTESIAN_POINT('',(0.0215001154103373,6.86435324671078,24.0));
#388=CARTESIAN_POINT('',(0.0215001154103373,6.86435324671078,0.0));
#389=CARTESIAN_POINT('',(-5.54256258422041,-3.2,24.0));
#390=CARTESIAN_POINT('',(-5.54256258422041,-3.2,0.0));
#391=CARTESIAN_POINT('',(0.0,-15.0,24.0));
#392=CARTESIAN_POINT('',(2.95768167557582,1.49315872607661,24.0));
#393=CARTESIAN_POINT('',(0.0,-15.0,19.8));
#394=CARTESIAN_POINT('',(0.0,-15.0,19.8));
#395=CARTESIAN_POINT('',(0.0,-15.0,24.0));
#396=MECHANICAL_DESIGN_GEOMETRIC_PRESENTATION_REPRESENTATION('',(#24),#397);
#397=(GEOMETRIC_REPRESENTATION_CONTEXT(3)GLOBAL_UNCERTAINTY_ASSIGNED_CONTEXT((#398))
     GLOBAL_UNIT_ASSIGNED_CONTEXT((#404,#400,#399))REPRESENTATION_CONTEXT('C4-391',
     'TOP_LEVEL_ASSEMBLY_PART'));
#398=UNCERTAINTY_MEASURE_WITH_UNIT(LENGTH_MEASURE(2.0E-5),#404,'DISTANCE_ACCURACY_VALUE',
     'Maximum Tolerance applied to model');
#399=(NAMED_UNIT(*)SI_UNIT($,.STERADIAN.)SOLID_ANGLE_UNIT());
#400=(CONVERSION_BASED_UNIT('DEGREE',#402)NAMED_UNIT(*)PLANE_ANGLE_UNIT());
#401=DIMENSIONAL_EXPONENTS(0.0,0.0,0.0,0.0,0.0,0.0,0.0);
#402=PLANE_ANGLE_MEASURE_WITH_UNIT(PLANE_ANGLE_MEASURE(0.0174532925),#403);
#403=(NAMED_UNIT(*)PLANE_ANGLE_UNIT()SI_UNIT($,.RADIAN.));
#404=(LENGTH_UNIT()NAMED_UNIT(*)SI_UNIT(.MILLI.,.METRE.));
#405=CARTESIAN_POINT('',(0.0,0.0,0.0));
#406=DIRECTION('',(0.0,0.0,1.0));
#407=DIRECTION('',(1.0,0.0,0.0));
#408=AXIS2_PLACEMENT_3D('PCS',#405,#406,#407);
#409=CARTESIAN_POINT('',(0.0,0.0,0.0));
#410=DIRECTION('',(0.0,0.0,1.0));
#411=DIRECTION('',(1.0,0.0,0.0));
#412=AXIS2_PLACEMENT_3D('MCS',#409,#410,#411);
#413=CARTESIAN_POINT('',(0.0,0.0,-139.0));
#414=DIRECTION('',(0.0,0.0,1.0));
#415=DIRECTION('',(1.0,0.0,0.0));
#416=AXIS2_PLACEMENT_3D('CSW',#413,#414,#415);
#417=CONSTRUCTIVE_GEOMETRY_REPRESENTATION('supplemental geometry',(#408,#412,#416),
     #397);
#418=CONSTRUCTIVE_GEOMETRY_REPRESENTATION_RELATIONSHIP('supplemental geometry',$,
     #22,#417);
ENDSEC;
END-ISO-10303-21;
