ISO-10303-21;
HEADER;
FILE_DESCRIPTION(
/* description */ ('3-D model version:1'),
/* implementation_level */ '2;1');
FILE_NAME(
/* name */ 'C4-391.32-08077',
/* time_stamp */ '2016-12-02T14:02:04',
/* author */ ('InteractiveCad'),
/* organization */ ('AB Sandvik Coromant'),
/* preprocessor_version */ 'ST-DEVELOPER v11',
/* originating_system */ 'SIEMENS UGS NX 6.0',
/* authorization */ '');
FILE_SCHEMA(('AUTOMOTIVE_DESIGN'));
ENDSEC;
DATA;
#10=SHAPE_REPRESENTATION_RELATIONSHIP('None','relationship between ds680184tkis-None and ds680184tkis-None',
     #22,#11);
#11=ADVANCED_BREP_SHAPE_REPRESENTATION('ds680184tkis-None',(#32),#517);
#12=SHAPE_DEFINITION_REPRESENTATION(#13,#22);
#13=PRODUCT_DEFINITION_SHAPE('','',#14);
#14=PRODUCT_DEFINITION(' ','',#16,#15);
#15=PRODUCT_DEFINITION_CONTEXT('part definition',#21,'design');
#16=PRODUCT_DEFINITION_FORMATION_WITH_SPECIFIED_SOURCE(' ',' ',#18,.NOT_KNOWN.);
#17=PRODUCT_RELATED_PRODUCT_CATEGORY('part','',(#18));
#18=PRODUCT('ds680184tkis','ds680184tkis',' ',(#19));
#19=PRODUCT_CONTEXT(' ',#21,'mechanical');
#20=APPLICATION_PROTOCOL_DEFINITION('international standard','automotive_design',
     2001,#21);
#21=APPLICATION_CONTEXT('core data for automotive mechanical design processes');
#22=SHAPE_REPRESENTATION('ds680184tkis-None',(#291),#517);
#23=PRESENTATION_LAYER_ASSIGNMENT('1','Layer 1',(#32));
#24=STYLED_ITEM('',(#25),#32);
#25=PRESENTATION_STYLE_ASSIGNMENT((#26));
#26=SURFACE_STYLE_USAGE(.BOTH.,#27);
#27=SURFACE_SIDE_STYLE('',(#28));
#28=SURFACE_STYLE_FILL_AREA(#29);
#29=FILL_AREA_STYLE('',(#30));
#30=FILL_AREA_STYLE_COLOUR('',#31);
#31=COLOUR_RGB('Medium Gray',0.490196078431373,0.490196078431373,0.490196078431373);
#32=MANIFOLD_SOLID_BREP('NOCUT',#33);
#33=CLOSED_SHELL('',(#68,#69,#70,#71,#72,#73,#74,#75,#76,#77,#78,#79,#80,#81,#82,
     #83,#84,#85,#86));
#34=B_SPLINE_CURVE_WITH_KNOTS('',3,(#491,#492,#493,#494),.UNSPECIFIED.,.F.,.F.,
     (4,4),(0.0,1.0),.UNSPECIFIED.);
#35=B_SPLINE_CURVE_WITH_KNOTS('',3,(#499,#500,#501,#502),.UNSPECIFIED.,.F.,.F.,
     (4,4),(0.0,1.0),.UNSPECIFIED.);
#36=LINE('',#473,#42);
#37=LINE('',#477,#43);
#38=LINE('',#481,#44);
#39=LINE('',#485,#45);
#40=LINE('',#489,#46);
#41=LINE('',#506,#47);
#42=VECTOR('',#388,1.0);
#43=VECTOR('',#391,1.0);
#44=VECTOR('',#396,1.0);
#45=VECTOR('',#401,1.0);
#46=VECTOR('',#406,1.0);
#47=VECTOR('',#413,1.0);
#48=FACE_OUTER_BOUND('',#128,.T.);
#49=FACE_OUTER_BOUND('',#133,.T.);
#50=FACE_OUTER_BOUND('',#134,.T.);
#51=FACE_OUTER_BOUND('',#135,.T.);
#52=FACE_OUTER_BOUND('',#136,.T.);
#53=FACE_OUTER_BOUND('',#137,.T.);
#54=FACE_OUTER_BOUND('',#138,.T.);
#55=FACE_OUTER_BOUND('',#139,.T.);
#56=FACE_OUTER_BOUND('',#140,.T.);
#57=FACE_OUTER_BOUND('',#141,.T.);
#58=PLANE('',#302);
#59=PLANE('',#311);
#60=PLANE('',#313);
#61=PLANE('',#316);
#62=PLANE('',#332);
#63=PLANE('',#334);
#64=TOROIDAL_SURFACE('',#298,19.5,1.5);
#65=CYLINDRICAL_SURFACE('',#296,18.0);
#66=CYLINDRICAL_SURFACE('',#304,20.0);
#67=CYLINDRICAL_SURFACE('',#335,4.0);
#68=ADVANCED_FACE('',(#96,#97),#87,.T.);
#69=ADVANCED_FACE('',(#98,#99),#65,.T.);
#70=ADVANCED_FACE('',(#100,#101),#64,.F.);
#71=ADVANCED_FACE('',(#102,#103),#88,.T.);
#72=ADVANCED_FACE('',(#104,#105),#58,.F.);
#73=ADVANCED_FACE('',(#106,#107),#66,.T.);
#74=ADVANCED_FACE('',(#108,#109),#59,.F.);
#75=ADVANCED_FACE('',(#48),#60,.F.);
#76=ADVANCED_FACE('',(#110,#111),#89,.T.);
#77=ADVANCED_FACE('',(#112,#113),#61,.F.);
#78=ADVANCED_FACE('',(#49),#90,.T.);
#79=ADVANCED_FACE('',(#50),#91,.T.);
#80=ADVANCED_FACE('',(#51),#92,.T.);
#81=ADVANCED_FACE('',(#52),#93,.T.);
#82=ADVANCED_FACE('',(#53),#94,.T.);
#83=ADVANCED_FACE('',(#54),#95,.T.);
#84=ADVANCED_FACE('',(#55),#62,.F.);
#85=ADVANCED_FACE('',(#56),#63,.F.);
#86=ADVANCED_FACE('',(#57),#67,.F.);
#87=CONICAL_SURFACE('',#294,11.8125060174746,19.9999999999999);
#88=CONICAL_SURFACE('',#300,18.7499999999999,59.999999999998);
#89=CONICAL_SURFACE('',#315,4.90808929720139,20.0);
#90=CONICAL_SURFACE('',#318,20.0,1.43916666666667);
#91=CONICAL_SURFACE('',#320,8.5,1.43916666666667);
#92=CONICAL_SURFACE('',#322,20.0,1.43916666666667);
#93=CONICAL_SURFACE('',#324,8.5,1.43916666666667);
#94=CONICAL_SURFACE('',#328,20.0,1.43916666666667);
#95=CONICAL_SURFACE('',#330,8.5,1.43916666666667);
#96=FACE_BOUND('',#114,.T.);
#97=FACE_BOUND('',#115,.T.);
#98=FACE_BOUND('',#116,.T.);
#99=FACE_BOUND('',#117,.T.);
#100=FACE_BOUND('',#118,.T.);
#101=FACE_BOUND('',#119,.T.);
#102=FACE_BOUND('',#120,.T.);
#103=FACE_BOUND('',#121,.T.);
#104=FACE_BOUND('',#122,.T.);
#105=FACE_BOUND('',#123,.T.);
#106=FACE_BOUND('',#124,.T.);
#107=FACE_BOUND('',#125,.T.);
#108=FACE_BOUND('',#126,.T.);
#109=FACE_BOUND('',#127,.T.);
#110=FACE_BOUND('',#129,.T.);
#111=FACE_BOUND('',#130,.T.);
#112=FACE_BOUND('',#131,.T.);
#113=FACE_BOUND('',#132,.T.);
#114=EDGE_LOOP('',(#142));
#115=EDGE_LOOP('',(#143));
#116=EDGE_LOOP('',(#144));
#117=EDGE_LOOP('',(#145));
#118=EDGE_LOOP('',(#146));
#119=EDGE_LOOP('',(#147));
#120=EDGE_LOOP('',(#148));
#121=EDGE_LOOP('',(#149));
#122=EDGE_LOOP('',(#150));
#123=EDGE_LOOP('',(#151));
#124=EDGE_LOOP('',(#152));
#125=EDGE_LOOP('',(#153));
#126=EDGE_LOOP('',(#154,#155,#156,#157,#158,#159));
#127=EDGE_LOOP('',(#160));
#128=EDGE_LOOP('',(#161));
#129=EDGE_LOOP('',(#162));
#130=EDGE_LOOP('',(#163));
#131=EDGE_LOOP('',(#164));
#132=EDGE_LOOP('',(#165));
#133=EDGE_LOOP('',(#166,#167,#168,#169));
#134=EDGE_LOOP('',(#170,#171,#172,#173));
#135=EDGE_LOOP('',(#174,#175,#176,#177));
#136=EDGE_LOOP('',(#178,#179,#180,#181));
#137=EDGE_LOOP('',(#182,#183,#184,#185,#186,#187,#188,#189));
#138=EDGE_LOOP('',(#190,#191,#192,#193));
#139=EDGE_LOOP('',(#194,#195,#196,#197,#198,#199,#200,#201));
#140=EDGE_LOOP('',(#202,#203));
#141=EDGE_LOOP('',(#204,#205,#206,#207));
#142=ORIENTED_EDGE('',*,*,#233,.F.);
#143=ORIENTED_EDGE('',*,*,#234,.T.);
#144=ORIENTED_EDGE('',*,*,#235,.F.);
#145=ORIENTED_EDGE('',*,*,#233,.T.);
#146=ORIENTED_EDGE('',*,*,#236,.F.);
#147=ORIENTED_EDGE('',*,*,#235,.T.);
#148=ORIENTED_EDGE('',*,*,#237,.F.);
#149=ORIENTED_EDGE('',*,*,#236,.T.);
#150=ORIENTED_EDGE('',*,*,#238,.F.);
#151=ORIENTED_EDGE('',*,*,#237,.T.);
#152=ORIENTED_EDGE('',*,*,#239,.F.);
#153=ORIENTED_EDGE('',*,*,#238,.T.);
#154=ORIENTED_EDGE('',*,*,#240,.T.);
#155=ORIENTED_EDGE('',*,*,#241,.T.);
#156=ORIENTED_EDGE('',*,*,#242,.T.);
#157=ORIENTED_EDGE('',*,*,#243,.T.);
#158=ORIENTED_EDGE('',*,*,#244,.T.);
#159=ORIENTED_EDGE('',*,*,#245,.T.);
#160=ORIENTED_EDGE('',*,*,#239,.T.);
#161=ORIENTED_EDGE('',*,*,#246,.F.);
#162=ORIENTED_EDGE('',*,*,#247,.F.);
#163=ORIENTED_EDGE('',*,*,#246,.T.);
#164=ORIENTED_EDGE('',*,*,#234,.F.);
#165=ORIENTED_EDGE('',*,*,#247,.T.);
#166=ORIENTED_EDGE('',*,*,#243,.F.);
#167=ORIENTED_EDGE('',*,*,#248,.F.);
#168=ORIENTED_EDGE('',*,*,#249,.T.);
#169=ORIENTED_EDGE('',*,*,#250,.T.);
#170=ORIENTED_EDGE('',*,*,#244,.F.);
#171=ORIENTED_EDGE('',*,*,#250,.F.);
#172=ORIENTED_EDGE('',*,*,#251,.T.);
#173=ORIENTED_EDGE('',*,*,#252,.T.);
#174=ORIENTED_EDGE('',*,*,#245,.F.);
#175=ORIENTED_EDGE('',*,*,#252,.F.);
#176=ORIENTED_EDGE('',*,*,#253,.T.);
#177=ORIENTED_EDGE('',*,*,#254,.T.);
#178=ORIENTED_EDGE('',*,*,#240,.F.);
#179=ORIENTED_EDGE('',*,*,#254,.F.);
#180=ORIENTED_EDGE('',*,*,#255,.T.);
#181=ORIENTED_EDGE('',*,*,#256,.T.);
#182=ORIENTED_EDGE('',*,*,#257,.F.);
#183=ORIENTED_EDGE('',*,*,#258,.F.);
#184=ORIENTED_EDGE('',*,*,#259,.F.);
#185=ORIENTED_EDGE('',*,*,#260,.T.);
#186=ORIENTED_EDGE('',*,*,#261,.T.);
#187=ORIENTED_EDGE('',*,*,#241,.F.);
#188=ORIENTED_EDGE('',*,*,#256,.F.);
#189=ORIENTED_EDGE('',*,*,#262,.T.);
#190=ORIENTED_EDGE('',*,*,#242,.F.);
#191=ORIENTED_EDGE('',*,*,#261,.F.);
#192=ORIENTED_EDGE('',*,*,#263,.T.);
#193=ORIENTED_EDGE('',*,*,#248,.T.);
#194=ORIENTED_EDGE('',*,*,#260,.F.);
#195=ORIENTED_EDGE('',*,*,#264,.T.);
#196=ORIENTED_EDGE('',*,*,#262,.F.);
#197=ORIENTED_EDGE('',*,*,#255,.F.);
#198=ORIENTED_EDGE('',*,*,#253,.F.);
#199=ORIENTED_EDGE('',*,*,#251,.F.);
#200=ORIENTED_EDGE('',*,*,#249,.F.);
#201=ORIENTED_EDGE('',*,*,#263,.F.);
#202=ORIENTED_EDGE('',*,*,#258,.T.);
#203=ORIENTED_EDGE('',*,*,#265,.F.);
#204=ORIENTED_EDGE('',*,*,#257,.T.);
#205=ORIENTED_EDGE('',*,*,#264,.F.);
#206=ORIENTED_EDGE('',*,*,#259,.T.);
#207=ORIENTED_EDGE('',*,*,#265,.T.);
#208=VERTEX_POINT('',#434);
#209=VERTEX_POINT('',#436);
#210=VERTEX_POINT('',#439);
#211=VERTEX_POINT('',#442);
#212=VERTEX_POINT('',#445);
#213=VERTEX_POINT('',#448);
#214=VERTEX_POINT('',#451);
#215=VERTEX_POINT('',#454);
#216=VERTEX_POINT('',#455);
#217=VERTEX_POINT('',#457);
#218=VERTEX_POINT('',#459);
#219=VERTEX_POINT('',#461);
#220=VERTEX_POINT('',#463);
#221=VERTEX_POINT('',#467);
#222=VERTEX_POINT('',#470);
#223=VERTEX_POINT('',#474);
#224=VERTEX_POINT('',#476);
#225=VERTEX_POINT('',#480);
#226=VERTEX_POINT('',#484);
#227=VERTEX_POINT('',#488);
#228=VERTEX_POINT('',#495);
#229=VERTEX_POINT('',#496);
#230=VERTEX_POINT('',#498);
#231=VERTEX_POINT('',#503);
#232=VERTEX_POINT('',#505);
#233=EDGE_CURVE('',#208,#208,#266,.T.);
#234=EDGE_CURVE('',#209,#209,#267,.T.);
#235=EDGE_CURVE('',#210,#210,#268,.T.);
#236=EDGE_CURVE('',#211,#211,#269,.T.);
#237=EDGE_CURVE('',#212,#212,#270,.T.);
#238=EDGE_CURVE('',#213,#213,#271,.T.);
#239=EDGE_CURVE('',#214,#214,#272,.T.);
#240=EDGE_CURVE('',#215,#216,#273,.T.);
#241=EDGE_CURVE('',#216,#217,#274,.T.);
#242=EDGE_CURVE('',#217,#218,#275,.T.);
#243=EDGE_CURVE('',#218,#219,#276,.T.);
#244=EDGE_CURVE('',#219,#220,#277,.T.);
#245=EDGE_CURVE('',#220,#215,#278,.T.);
#246=EDGE_CURVE('',#221,#221,#279,.T.);
#247=EDGE_CURVE('',#222,#222,#280,.T.);
#248=EDGE_CURVE('',#223,#218,#36,.T.);
#249=EDGE_CURVE('',#223,#224,#281,.T.);
#250=EDGE_CURVE('',#224,#219,#37,.T.);
#251=EDGE_CURVE('',#224,#225,#282,.T.);
#252=EDGE_CURVE('',#225,#220,#38,.T.);
#253=EDGE_CURVE('',#225,#226,#283,.T.);
#254=EDGE_CURVE('',#226,#215,#39,.T.);
#255=EDGE_CURVE('',#226,#227,#284,.T.);
#256=EDGE_CURVE('',#227,#216,#40,.T.);
#257=EDGE_CURVE('',#228,#229,#34,.T.);
#258=EDGE_CURVE('',#230,#228,#285,.T.);
#259=EDGE_CURVE('',#231,#230,#35,.T.);
#260=EDGE_CURVE('',#231,#232,#286,.T.);
#261=EDGE_CURVE('',#232,#217,#41,.T.);
#262=EDGE_CURVE('',#227,#229,#287,.T.);
#263=EDGE_CURVE('',#232,#223,#288,.T.);
#264=EDGE_CURVE('',#231,#229,#289,.T.);
#265=EDGE_CURVE('',#230,#228,#290,.T.);
#266=CIRCLE('',#292,18.0);
#267=CIRCLE('',#293,11.8125060174746);
#268=CIRCLE('',#295,18.0);
#269=CIRCLE('',#297,18.7499999999999);
#270=CIRCLE('',#299,19.9499999999999);
#271=CIRCLE('',#301,20.0);
#272=CIRCLE('',#303,20.0);
#273=CIRCLE('',#305,8.5);
#274=CIRCLE('',#306,20.0);
#275=CIRCLE('',#307,8.5);
#276=CIRCLE('',#308,20.0);
#277=CIRCLE('',#309,8.5);
#278=CIRCLE('',#310,20.0);
#279=CIRCLE('',#312,4.90808929720139);
#280=CIRCLE('',#314,6.0);
#281=CIRCLE('',#317,19.3970364630094);
#282=CIRCLE('',#319,7.89703646300946);
#283=CIRCLE('',#321,19.3970364630094);
#284=CIRCLE('',#323,7.89703646300946);
#285=CIRCLE('',#325,19.5025550819828);
#286=CIRCLE('',#326,19.3970364630094);
#287=CIRCLE('',#327,19.3970364630094);
#288=CIRCLE('',#329,7.89703646300946);
#289=CIRCLE('',#331,4.0);
#290=CIRCLE('',#333,4.0);
#291=AXIS2_PLACEMENT_3D('',#432,#336,#337);
#292=AXIS2_PLACEMENT_3D('',#433,#338,#339);
#293=AXIS2_PLACEMENT_3D('',#435,#340,#341);
#294=AXIS2_PLACEMENT_3D('',#437,#342,#343);
#295=AXIS2_PLACEMENT_3D('',#438,#344,#345);
#296=AXIS2_PLACEMENT_3D('',#440,#346,#347);
#297=AXIS2_PLACEMENT_3D('',#441,#348,#349);
#298=AXIS2_PLACEMENT_3D('',#443,#350,#351);
#299=AXIS2_PLACEMENT_3D('',#444,#352,#353);
#300=AXIS2_PLACEMENT_3D('',#446,#354,#355);
#301=AXIS2_PLACEMENT_3D('',#447,#356,#357);
#302=AXIS2_PLACEMENT_3D('',#449,#358,#359);
#303=AXIS2_PLACEMENT_3D('',#450,#360,#361);
#304=AXIS2_PLACEMENT_3D('',#452,#362,#363);
#305=AXIS2_PLACEMENT_3D('',#453,#364,#365);
#306=AXIS2_PLACEMENT_3D('',#456,#366,#367);
#307=AXIS2_PLACEMENT_3D('',#458,#368,#369);
#308=AXIS2_PLACEMENT_3D('',#460,#370,#371);
#309=AXIS2_PLACEMENT_3D('',#462,#372,#373);
#310=AXIS2_PLACEMENT_3D('',#464,#374,#375);
#311=AXIS2_PLACEMENT_3D('',#465,#376,#377);
#312=AXIS2_PLACEMENT_3D('',#466,#378,#379);
#313=AXIS2_PLACEMENT_3D('',#468,#380,#381);
#314=AXIS2_PLACEMENT_3D('',#469,#382,#383);
#315=AXIS2_PLACEMENT_3D('',#471,#384,#385);
#316=AXIS2_PLACEMENT_3D('',#472,#386,#387);
#317=AXIS2_PLACEMENT_3D('',#475,#389,#390);
#318=AXIS2_PLACEMENT_3D('',#478,#392,#393);
#319=AXIS2_PLACEMENT_3D('',#479,#394,#395);
#320=AXIS2_PLACEMENT_3D('',#482,#397,#398);
#321=AXIS2_PLACEMENT_3D('',#483,#399,#400);
#322=AXIS2_PLACEMENT_3D('',#486,#402,#403);
#323=AXIS2_PLACEMENT_3D('',#487,#404,#405);
#324=AXIS2_PLACEMENT_3D('',#490,#407,#408);
#325=AXIS2_PLACEMENT_3D('',#497,#409,#410);
#326=AXIS2_PLACEMENT_3D('',#504,#411,#412);
#327=AXIS2_PLACEMENT_3D('',#507,#414,#415);
#328=AXIS2_PLACEMENT_3D('',#508,#416,#417);
#329=AXIS2_PLACEMENT_3D('',#509,#418,#419);
#330=AXIS2_PLACEMENT_3D('',#510,#420,#421);
#331=AXIS2_PLACEMENT_3D('',#511,#422,#423);
#332=AXIS2_PLACEMENT_3D('',#512,#424,#425);
#333=AXIS2_PLACEMENT_3D('',#513,#426,#427);
#334=AXIS2_PLACEMENT_3D('',#514,#428,#429);
#335=AXIS2_PLACEMENT_3D('',#515,#430,#431);
#336=DIRECTION('',(0.0,0.0,1.0));
#337=DIRECTION('',(1.0,0.0,0.0));
#338=DIRECTION('',(0.0,0.0,1.0));
#339=DIRECTION('',(1.0,0.0,0.0));
#340=DIRECTION('',(0.0,0.0,1.0));
#341=DIRECTION('',(1.0,0.0,0.0));
#342=DIRECTION('',(0.0,0.0,1.0));
#343=DIRECTION('',(1.0,0.0,1.1079104748668E-16));
#344=DIRECTION('',(0.0,0.0,1.0));
#345=DIRECTION('',(1.0,0.0,0.0));
#346=DIRECTION('',(0.0,0.0,1.0));
#347=DIRECTION('',(1.0,0.0,0.0));
#348=DIRECTION('',(0.0,0.0,1.0));
#349=DIRECTION('',(1.0,0.0,0.0));
#350=DIRECTION('',(0.0,0.0,1.0));
#351=DIRECTION('',(1.0,0.0,0.0));
#352=DIRECTION('',(0.0,0.0,1.0));
#353=DIRECTION('',(1.0,0.0,0.0));
#354=DIRECTION('',(0.0,0.0,1.0));
#355=DIRECTION('',(1.0,0.0,1.98163431097081E-17));
#356=DIRECTION('',(0.0,0.0,1.0));
#357=DIRECTION('',(1.0,0.0,0.0));
#358=DIRECTION('',(0.0,0.0,1.0));
#359=DIRECTION('',(1.0,0.0,0.0));
#360=DIRECTION('',(0.0,0.0,1.0));
#361=DIRECTION('',(1.0,0.0,0.0));
#362=DIRECTION('',(0.0,0.0,1.0));
#363=DIRECTION('',(1.0,0.0,0.0));
#364=DIRECTION('',(0.0,0.0,-1.0));
#365=DIRECTION('',(-1.0,0.0,0.0));
#366=DIRECTION('',(0.0,0.0,-1.0));
#367=DIRECTION('',(-1.0,0.0,0.0));
#368=DIRECTION('',(0.0,0.0,-1.0));
#369=DIRECTION('',(-1.0,0.0,0.0));
#370=DIRECTION('',(0.0,0.0,-1.0));
#371=DIRECTION('',(-1.0,0.0,0.0));
#372=DIRECTION('',(0.0,0.0,-1.0));
#373=DIRECTION('',(-1.0,0.0,0.0));
#374=DIRECTION('',(0.0,0.0,-1.0));
#375=DIRECTION('',(-1.0,0.0,0.0));
#376=DIRECTION('',(0.0,0.0,-1.0));
#377=DIRECTION('',(-1.0,0.0,0.0));
#378=DIRECTION('',(0.0,0.0,1.0));
#379=DIRECTION('',(1.0,0.0,0.0));
#380=DIRECTION('',(0.0,0.0,1.0));
#381=DIRECTION('',(1.0,0.0,0.0));
#382=DIRECTION('',(0.0,0.0,1.0));
#383=DIRECTION('',(1.0,0.0,0.0));
#384=DIRECTION('',(0.0,0.0,1.0));
#385=DIRECTION('',(1.0,0.0,1.12864759905816E-16));
#386=DIRECTION('',(0.0,0.0,1.0));
#387=DIRECTION('',(1.0,0.0,0.0));
#388=DIRECTION('',(-0.0251112246842899,4.66400186113526E-4,-0.999684554679986));
#389=DIRECTION('',(0.0,0.0,-1.0));
#390=DIRECTION('',(-1.0,0.0,0.0));
#391=DIRECTION('',(-0.0130940393650178,0.0214321549869783,-0.999684554679986));
#392=DIRECTION('',(0.0,0.0,-1.0));
#393=DIRECTION('',(1.0,0.0,0.0));
#394=DIRECTION('',(0.0,0.0,-1.0));
#395=DIRECTION('',(-1.0,0.0,0.0));
#396=DIRECTION('',(0.0129628683279737,0.0215117451405068,-0.999684554679986));
#397=DIRECTION('',(0.0,0.0,-1.0));
#398=DIRECTION('',(1.0,0.0,0.0));
#399=DIRECTION('',(0.0,0.0,-1.0));
#400=DIRECTION('',(-1.0,0.0,0.0));
#401=DIRECTION('',(0.0251111519354021,4.70300707684483E-4,-0.999684554679986));
#402=DIRECTION('',(0.0,0.0,-1.0));
#403=DIRECTION('',(1.0,0.0,0.0));
#404=DIRECTION('',(0.0,0.0,-1.0));
#405=DIRECTION('',(-1.0,0.0,0.0));
#406=DIRECTION('',(0.0120137709940597,-0.0220558482217481,-0.999684554679986));
#407=DIRECTION('',(0.0,0.0,-1.0));
#408=DIRECTION('',(1.0,0.0,0.0));
#409=DIRECTION('',(0.0,0.0,1.0));
#410=DIRECTION('',(-1.0,0.0,0.0));
#411=DIRECTION('',(0.0,0.0,-1.0));
#412=DIRECTION('',(-1.0,0.0,0.0));
#413=DIRECTION('',(-0.0121516979326409,-0.0219801585897907,-0.999684554679986));
#414=DIRECTION('',(0.0,0.0,-1.0));
#415=DIRECTION('',(-1.0,0.0,0.0));
#416=DIRECTION('',(0.0,0.0,-1.0));
#417=DIRECTION('',(1.0,0.0,0.0));
#418=DIRECTION('',(0.0,0.0,-1.0));
#419=DIRECTION('',(-1.0,0.0,0.0));
#420=DIRECTION('',(0.0,0.0,-1.0));
#421=DIRECTION('',(1.0,0.0,0.0));
#422=DIRECTION('',(0.0,0.0,-1.0));
#423=DIRECTION('',(-1.0,0.0,0.0));
#424=DIRECTION('',(0.0,0.0,-1.0));
#425=DIRECTION('',(1.0,0.0,0.0));
#426=DIRECTION('',(0.0,0.0,-1.0));
#427=DIRECTION('',(-1.0,0.0,0.0));
#428=DIRECTION('',(0.0,0.0,-1.0));
#429=DIRECTION('',(1.0,0.0,0.0));
#430=DIRECTION('',(0.0,0.0,-1.0));
#431=DIRECTION('',(1.0,0.0,0.0));
#432=CARTESIAN_POINT('',(0.0,0.0,0.0));
#433=CARTESIAN_POINT('',(0.0,8.88178419700125E-16,-57.0));
#434=CARTESIAN_POINT('',(18.0,8.88178419700125E-16,-57.0));
#435=CARTESIAN_POINT('',(0.0,8.88178419700125E-16,-74.0));
#436=CARTESIAN_POINT('',(11.8125060174746,8.88178419700125E-16,-74.0));
#437=CARTESIAN_POINT('',(0.0,8.88178419700125E-16,-74.0));
#438=CARTESIAN_POINT('',(0.0,8.88178419700125E-16,-21.9918584287042));
#439=CARTESIAN_POINT('',(18.0,8.88178419700125E-16,-21.9918584287042));
#440=CARTESIAN_POINT('',(0.0,8.88178419700125E-16,-77.0));
#441=CARTESIAN_POINT('',(0.0,8.88178419700125E-16,-20.6928203230276));
#442=CARTESIAN_POINT('',(18.7499999999999,8.88178419700125E-16,-20.6928203230276));
#443=CARTESIAN_POINT('',(0.0,0.0,-21.9918584287042));
#444=CARTESIAN_POINT('',(0.0,8.88178419700125E-16,-20.0));
#445=CARTESIAN_POINT('',(19.9499999999999,8.88178419700125E-16,-20.0));
#446=CARTESIAN_POINT('',(0.0,8.88178419700125E-16,-20.6928203230276));
#447=CARTESIAN_POINT('',(0.0,8.88178419700125E-16,-20.0));
#448=CARTESIAN_POINT('',(20.0,8.88178419700125E-16,-20.0));
#449=CARTESIAN_POINT('',(0.0,-19.9499999999999,-20.0));
#450=CARTESIAN_POINT('',(0.0,8.88178419700125E-16,0.0));
#451=CARTESIAN_POINT('',(20.0,8.88178419700125E-16,0.0));
#452=CARTESIAN_POINT('',(0.0,8.88178419700125E-16,-77.0));
#453=CARTESIAN_POINT('',(5.522408337495,-3.23465703807463,0.0));
#454=CARTESIAN_POINT('',(14.0209179723354,-3.07549050099937,0.0));
#455=CARTESIAN_POINT('',(9.58829702338366,-10.6991429007421,0.0));
#456=CARTESIAN_POINT('',(0.0215001154103373,6.86435324671078,0.0));
#457=CARTESIAN_POINT('',(-9.65513066655617,-10.6388697910471,0.0));
#458=CARTESIAN_POINT('',(-5.54256258422041,-3.2,0.0));
#459=CARTESIAN_POINT('',(-14.0410968398797,-3.04215353857228,0.0));
#460=CARTESIAN_POINT('',(5.95545434990689,-3.41355697722574,0.0));
#461=CARTESIAN_POINT('',(-4.47158103907076,13.653280251652,0.0));
#462=CARTESIAN_POINT('',(-0.0400909987552516,6.39987442937897,0.0));
#463=CARTESIAN_POINT('',(4.34700608320455,13.6802163989199,0.0));
#464=CARTESIAN_POINT('',(-5.97557528611263,-3.45,0.0));
#465=CARTESIAN_POINT('',(0.0,-13.1356351969117,0.0));
#466=CARTESIAN_POINT('',(0.0,8.88178419700125E-16,-77.0));
#467=CARTESIAN_POINT('',(4.90808929720139,8.88178419700125E-16,-77.0));
#468=CARTESIAN_POINT('',(0.0,8.88178419700125E-16,-77.0));
#469=CARTESIAN_POINT('',(0.0,8.88178419700125E-16,-74.0));
#470=CARTESIAN_POINT('',(6.0,8.88178419700125E-16,-74.0));
#471=CARTESIAN_POINT('',(0.0,8.88178419700125E-16,-77.0));
#472=CARTESIAN_POINT('',(0.0,-6.0,-74.0));
#473=CARTESIAN_POINT('',(-14.0410968398797,-3.04215353857228,-1.30664401377134E-16));
#474=CARTESIAN_POINT('',(-13.4382372782294,-3.05335067512333,24.0));
#475=CARTESIAN_POINT('',(5.95545434990689,-3.41355697722574,24.0));
#476=CARTESIAN_POINT('',(-4.15722493214758,13.1387462246137,24.0));
#477=CARTESIAN_POINT('',(-4.47158103907076,13.653280251652,0.0));
#478=CARTESIAN_POINT('',(5.95545434990689,-3.41355697722574,0.0));
#479=CARTESIAN_POINT('',(-0.0400909987552516,6.39987442937897,24.0));
#480=CARTESIAN_POINT('',(4.03579907453875,13.1637716054546,24.0));
#481=CARTESIAN_POINT('',(4.34700608320455,13.6802163989199,0.0));
#482=CARTESIAN_POINT('',(-0.0400909987552516,6.39987442937897,0.0));
#483=CARTESIAN_POINT('',(-5.97557528611263,-3.45,24.0));
#484=CARTESIAN_POINT('',(13.4180601572094,-3.08678127960707,24.0));
#485=CARTESIAN_POINT('',(14.0209179723354,-3.07549050099937,8.71096009180893E-17));
#486=CARTESIAN_POINT('',(-5.97557528611263,-3.45,0.0));
#487=CARTESIAN_POINT('',(5.522408337495,-3.23465703807463,24.0));
#488=CARTESIAN_POINT('',(9.29987553831857,-10.1696355127927,24.0));
#489=CARTESIAN_POINT('',(9.58829702338366,-10.6991429007421,0.0));
#490=CARTESIAN_POINT('',(5.522408337495,-3.23465703807463,0.0));
#491=CARTESIAN_POINT('',(3.04217367114143,-12.4028516879828,19.8));
#492=CARTESIAN_POINT('',(3.01536690869658,-12.3714515455493,21.2000133982658));
#493=CARTESIAN_POINT('',(2.98779256558135,-12.3401358046305,22.600014237919));
#494=CARTESIAN_POINT('',(2.95939263898617,-12.30890445946,24.0));
#495=CARTESIAN_POINT('',(3.04217367114143,-12.4028516879828,19.8));
#496=CARTESIAN_POINT('',(2.95939263898617,-12.30890445946,24.0));
#497=CARTESIAN_POINT('',(0.0215001154103373,6.86435324671078,19.8));
#498=CARTESIAN_POINT('',(-3.03706002783089,-12.39687372812,19.8));
#499=CARTESIAN_POINT('',(-2.95409439161902,-12.303089485095,24.0));
#500=CARTESIAN_POINT('',(-2.98255568535731,-12.3342649162952,22.600014237919));
#501=CARTESIAN_POINT('',(-3.01019156319168,-12.365526366739,21.2000133982658));
#502=CARTESIAN_POINT('',(-3.03706002783089,-12.39687372812,19.8));
#503=CARTESIAN_POINT('',(-2.95409439161902,-12.303089485095,24.0));
#504=CARTESIAN_POINT('',(0.0215001154103373,6.86435324671078,24.0));
#505=CARTESIAN_POINT('',(-9.36339789043387,-10.1111795274681,24.0));
#506=CARTESIAN_POINT('',(-9.65513066655617,-10.6388697910471,0.0));
#507=CARTESIAN_POINT('',(0.0215001154103373,6.86435324671078,24.0));
#508=CARTESIAN_POINT('',(0.0215001154103373,6.86435324671078,0.0));
#509=CARTESIAN_POINT('',(-5.54256258422041,-3.2,24.0));
#510=CARTESIAN_POINT('',(-5.54256258422041,-3.2,0.0));
#511=CARTESIAN_POINT('',(0.0,-15.0,24.0));
#512=CARTESIAN_POINT('',(2.95768167557582,1.49315872607661,24.0));
#513=CARTESIAN_POINT('',(0.0,-15.0,19.8));
#514=CARTESIAN_POINT('',(0.0,-15.0,19.8));
#515=CARTESIAN_POINT('',(0.0,-15.0,24.0));
#516=MECHANICAL_DESIGN_GEOMETRIC_PRESENTATION_REPRESENTATION('',(#24),#517);
#517=(GEOMETRIC_REPRESENTATION_CONTEXT(3)GLOBAL_UNCERTAINTY_ASSIGNED_CONTEXT((#518))
     GLOBAL_UNIT_ASSIGNED_CONTEXT((#524,#520,#519))REPRESENTATION_CONTEXT('C4-391',
     'TOP_LEVEL_ASSEMBLY_PART'));
#518=UNCERTAINTY_MEASURE_WITH_UNIT(LENGTH_MEASURE(2.0E-5),#524,'DISTANCE_ACCURACY_VALUE',
     'Maximum Tolerance applied to model');
#519=(NAMED_UNIT(*)SI_UNIT($,.STERADIAN.)SOLID_ANGLE_UNIT());
#520=(CONVERSION_BASED_UNIT('DEGREE',#522)NAMED_UNIT(*)PLANE_ANGLE_UNIT());
#521=DIMENSIONAL_EXPONENTS(0.0,0.0,0.0,0.0,0.0,0.0,0.0);
#522=PLANE_ANGLE_MEASURE_WITH_UNIT(PLANE_ANGLE_MEASURE(0.0174532925),#523);
#523=(NAMED_UNIT(*)PLANE_ANGLE_UNIT()SI_UNIT($,.RADIAN.));
#524=(LENGTH_UNIT()NAMED_UNIT(*)SI_UNIT(.MILLI.,.METRE.));
#525=CARTESIAN_POINT('',(0.0,0.0,0.0));
#526=DIRECTION('',(0.0,0.0,1.0));
#527=DIRECTION('',(1.0,0.0,0.0));
#528=AXIS2_PLACEMENT_3D('PCS',#525,#526,#527);
#529=CARTESIAN_POINT('',(0.0,0.0,0.0));
#530=DIRECTION('',(0.0,0.0,1.0));
#531=DIRECTION('',(1.0,0.0,0.0));
#532=AXIS2_PLACEMENT_3D('MCS',#529,#530,#531);
#533=CARTESIAN_POINT('',(0.0,0.0,-77.0));
#534=DIRECTION('',(0.0,0.0,1.0));
#535=DIRECTION('',(1.0,0.0,0.0));
#536=AXIS2_PLACEMENT_3D('CSW',#533,#534,#535);
#537=CONSTRUCTIVE_GEOMETRY_REPRESENTATION('supplemental geometry',(#528,#532,#536),
     #517);
#538=CONSTRUCTIVE_GEOMETRY_REPRESENTATION_RELATIONSHIP('supplemental geometry',$,
     #22,#537);
ENDSEC;
END-ISO-10303-21;
