ISO-10303-21;
HEADER;
FILE_DESCRIPTION(
/* description */ ('3-D model version:1'),
/* implementation_level */ '2;1');
FILE_NAME(
/* name */ 'C10-390.140-60050',
/* time_stamp */ '2016-12-02T13:55:18',
/* author */ ('InteractiveCad'),
/* organization */ ('AB Sandvik Coromant'),
/* preprocessor_version */ 'ST-DEVELOPER v11',
/* originating_system */ 'SIEMENS UGS NX 6.0',
/* authorization */ '');
FILE_SCHEMA(('AUTOMOTIVE_DESIGN'));
ENDSEC;
DATA;
#10=SHAPE_REPRESENTATION_RELATIONSHIP('None','relationship between ds681106m3fv-None and ds681106m3fv-None',
     #22,#11);
#11=ADVANCED_BREP_SHAPE_REPRESENTATION('ds681106m3fv-None',(#28,#295),#514);
#12=SHAPE_DEFINITION_REPRESENTATION(#13,#22);
#13=PRODUCT_DEFINITION_SHAPE('','',#14);
#14=PRODUCT_DEFINITION(' ','',#16,#15);
#15=PRODUCT_DEFINITION_CONTEXT('part definition',#21,'design');
#16=PRODUCT_DEFINITION_FORMATION_WITH_SPECIFIED_SOURCE(' ',' ',#18,.NOT_KNOWN.);
#17=PRODUCT_RELATED_PRODUCT_CATEGORY('part','',(#18));
#18=PRODUCT('ds681106m3fv','ds681106m3fv',' ',(#19));
#19=PRODUCT_CONTEXT(' ',#21,'mechanical');
#20=APPLICATION_PROTOCOL_DEFINITION('international standard','automotive_design',
     2001,#21);
#21=APPLICATION_CONTEXT('core data for automotive mechanical design processes');
#22=SHAPE_REPRESENTATION('ds681106m3fv-None',(#294),#514);
#23=SURFACE_STYLE_USAGE(.BOTH.,#24);
#24=SURFACE_SIDE_STYLE('',(#25));
#25=SURFACE_STYLE_FILL_AREA(#26);
#26=FILL_AREA_STYLE('',(#27));
#27=FILL_AREA_STYLE_COLOUR('',#292);
#28=MANIFOLD_SOLID_BREP('NOCUT',#29);
#29=CLOSED_SHELL('',(#49,#50,#51,#52,#53,#54,#55,#56,#57,#58,#59,#60,#61,#62,#63,
     #64,#65,#66,#67,#68,#69,#70,#71,#72));
#30=FACE_OUTER_BOUND('',#168,.T.);
#31=FACE_OUTER_BOUND('',#169,.T.);
#32=PLANE('',#306);
#33=PLANE('',#312);
#34=PLANE('',#316);
#35=PLANE('',#322);
#36=PLANE('',#326);
#37=PLANE('',#332);
#38=PLANE('',#336);
#39=PLANE('',#341);
#40=PLANE('',#342);
#41=TOROIDAL_SURFACE('',#304,54.35,0.6);
#42=CYLINDRICAL_SURFACE('',#302,53.75);
#43=CYLINDRICAL_SURFACE('',#308,77.475);
#44=CYLINDRICAL_SURFACE('',#314,73.725);
#45=CYLINDRICAL_SURFACE('',#320,77.475);
#46=CYLINDRICAL_SURFACE('',#324,50.0);
#47=CYLINDRICAL_SURFACE('',#334,50.0);
#48=CYLINDRICAL_SURFACE('',#338,12.0);
#49=ADVANCED_FACE('',(#80,#81),#73,.T.);
#50=ADVANCED_FACE('',(#82,#83),#74,.T.);
#51=ADVANCED_FACE('',(#84,#85),#42,.T.);
#52=ADVANCED_FACE('',(#86,#87),#41,.F.);
#53=ADVANCED_FACE('',(#88,#89),#32,.F.);
#54=ADVANCED_FACE('',(#90,#91),#43,.T.);
#55=ADVANCED_FACE('',(#92,#93),#75,.T.);
#56=ADVANCED_FACE('',(#94,#95),#33,.F.);
#57=ADVANCED_FACE('',(#96,#97),#44,.T.);
#58=ADVANCED_FACE('',(#98,#99),#34,.F.);
#59=ADVANCED_FACE('',(#100,#101),#76,.T.);
#60=ADVANCED_FACE('',(#102,#103),#45,.T.);
#61=ADVANCED_FACE('',(#104,#105),#35,.F.);
#62=ADVANCED_FACE('',(#106,#107),#46,.T.);
#63=ADVANCED_FACE('',(#108,#109),#36,.F.);
#64=ADVANCED_FACE('',(#110,#111),#77,.T.);
#65=ADVANCED_FACE('',(#112,#113),#78,.T.);
#66=ADVANCED_FACE('',(#114,#115),#37,.F.);
#67=ADVANCED_FACE('',(#116,#117),#47,.T.);
#68=ADVANCED_FACE('',(#118,#119),#38,.F.);
#69=ADVANCED_FACE('',(#120,#121),#48,.T.);
#70=ADVANCED_FACE('',(#122,#123),#79,.T.);
#71=ADVANCED_FACE('',(#30),#39,.F.);
#72=ADVANCED_FACE('',(#31),#40,.F.);
#73=CONICAL_SURFACE('',#298,30.3992183372073,8.29777777777785);
#74=CONICAL_SURFACE('',#300,54.0770912289759,29.9999999999961);
#75=CONICAL_SURFACE('',#310,77.475,59.9999999999999);
#76=CONICAL_SURFACE('',#318,75.1875471694755,59.9999999999995);
#77=CONICAL_SURFACE('',#328,49.3,20.0);
#78=CONICAL_SURFACE('',#330,48.5720595314676,20.0);
#79=CONICAL_SURFACE('',#340,12.0,45.0);
#80=FACE_BOUND('',#124,.T.);
#81=FACE_BOUND('',#125,.T.);
#82=FACE_BOUND('',#126,.T.);
#83=FACE_BOUND('',#127,.T.);
#84=FACE_BOUND('',#128,.T.);
#85=FACE_BOUND('',#129,.T.);
#86=FACE_BOUND('',#130,.T.);
#87=FACE_BOUND('',#131,.T.);
#88=FACE_BOUND('',#132,.T.);
#89=FACE_BOUND('',#133,.T.);
#90=FACE_BOUND('',#134,.T.);
#91=FACE_BOUND('',#135,.T.);
#92=FACE_BOUND('',#136,.T.);
#93=FACE_BOUND('',#137,.T.);
#94=FACE_BOUND('',#138,.T.);
#95=FACE_BOUND('',#139,.T.);
#96=FACE_BOUND('',#140,.T.);
#97=FACE_BOUND('',#141,.T.);
#98=FACE_BOUND('',#142,.T.);
#99=FACE_BOUND('',#143,.T.);
#100=FACE_BOUND('',#144,.T.);
#101=FACE_BOUND('',#145,.T.);
#102=FACE_BOUND('',#146,.T.);
#103=FACE_BOUND('',#147,.T.);
#104=FACE_BOUND('',#148,.T.);
#105=FACE_BOUND('',#149,.T.);
#106=FACE_BOUND('',#150,.T.);
#107=FACE_BOUND('',#151,.T.);
#108=FACE_BOUND('',#152,.T.);
#109=FACE_BOUND('',#153,.T.);
#110=FACE_BOUND('',#154,.T.);
#111=FACE_BOUND('',#155,.T.);
#112=FACE_BOUND('',#156,.T.);
#113=FACE_BOUND('',#157,.T.);
#114=FACE_BOUND('',#158,.T.);
#115=FACE_BOUND('',#159,.T.);
#116=FACE_BOUND('',#160,.T.);
#117=FACE_BOUND('',#161,.T.);
#118=FACE_BOUND('',#162,.T.);
#119=FACE_BOUND('',#163,.T.);
#120=FACE_BOUND('',#164,.T.);
#121=FACE_BOUND('',#165,.T.);
#122=FACE_BOUND('',#166,.T.);
#123=FACE_BOUND('',#167,.T.);
#124=EDGE_LOOP('',(#170));
#125=EDGE_LOOP('',(#171));
#126=EDGE_LOOP('',(#172));
#127=EDGE_LOOP('',(#173));
#128=EDGE_LOOP('',(#174));
#129=EDGE_LOOP('',(#175));
#130=EDGE_LOOP('',(#176));
#131=EDGE_LOOP('',(#177));
#132=EDGE_LOOP('',(#178));
#133=EDGE_LOOP('',(#179));
#134=EDGE_LOOP('',(#180));
#135=EDGE_LOOP('',(#181));
#136=EDGE_LOOP('',(#182));
#137=EDGE_LOOP('',(#183));
#138=EDGE_LOOP('',(#184));
#139=EDGE_LOOP('',(#185));
#140=EDGE_LOOP('',(#186));
#141=EDGE_LOOP('',(#187));
#142=EDGE_LOOP('',(#188));
#143=EDGE_LOOP('',(#189));
#144=EDGE_LOOP('',(#190));
#145=EDGE_LOOP('',(#191));
#146=EDGE_LOOP('',(#192));
#147=EDGE_LOOP('',(#193));
#148=EDGE_LOOP('',(#194));
#149=EDGE_LOOP('',(#195));
#150=EDGE_LOOP('',(#196));
#151=EDGE_LOOP('',(#197));
#152=EDGE_LOOP('',(#198));
#153=EDGE_LOOP('',(#199));
#154=EDGE_LOOP('',(#200));
#155=EDGE_LOOP('',(#201));
#156=EDGE_LOOP('',(#202));
#157=EDGE_LOOP('',(#203));
#158=EDGE_LOOP('',(#204));
#159=EDGE_LOOP('',(#205));
#160=EDGE_LOOP('',(#206));
#161=EDGE_LOOP('',(#207));
#162=EDGE_LOOP('',(#208));
#163=EDGE_LOOP('',(#209));
#164=EDGE_LOOP('',(#210));
#165=EDGE_LOOP('',(#211));
#166=EDGE_LOOP('',(#212));
#167=EDGE_LOOP('',(#213));
#168=EDGE_LOOP('',(#214));
#169=EDGE_LOOP('',(#215));
#170=ORIENTED_EDGE('',*,*,#239,.F.);
#171=ORIENTED_EDGE('',*,*,#240,.T.);
#172=ORIENTED_EDGE('',*,*,#241,.F.);
#173=ORIENTED_EDGE('',*,*,#239,.T.);
#174=ORIENTED_EDGE('',*,*,#242,.F.);
#175=ORIENTED_EDGE('',*,*,#241,.T.);
#176=ORIENTED_EDGE('',*,*,#243,.F.);
#177=ORIENTED_EDGE('',*,*,#242,.T.);
#178=ORIENTED_EDGE('',*,*,#244,.F.);
#179=ORIENTED_EDGE('',*,*,#243,.T.);
#180=ORIENTED_EDGE('',*,*,#245,.F.);
#181=ORIENTED_EDGE('',*,*,#244,.T.);
#182=ORIENTED_EDGE('',*,*,#246,.F.);
#183=ORIENTED_EDGE('',*,*,#245,.T.);
#184=ORIENTED_EDGE('',*,*,#247,.F.);
#185=ORIENTED_EDGE('',*,*,#246,.T.);
#186=ORIENTED_EDGE('',*,*,#248,.F.);
#187=ORIENTED_EDGE('',*,*,#247,.T.);
#188=ORIENTED_EDGE('',*,*,#249,.F.);
#189=ORIENTED_EDGE('',*,*,#248,.T.);
#190=ORIENTED_EDGE('',*,*,#250,.F.);
#191=ORIENTED_EDGE('',*,*,#249,.T.);
#192=ORIENTED_EDGE('',*,*,#251,.F.);
#193=ORIENTED_EDGE('',*,*,#250,.T.);
#194=ORIENTED_EDGE('',*,*,#252,.F.);
#195=ORIENTED_EDGE('',*,*,#251,.T.);
#196=ORIENTED_EDGE('',*,*,#253,.F.);
#197=ORIENTED_EDGE('',*,*,#252,.T.);
#198=ORIENTED_EDGE('',*,*,#254,.F.);
#199=ORIENTED_EDGE('',*,*,#253,.T.);
#200=ORIENTED_EDGE('',*,*,#255,.F.);
#201=ORIENTED_EDGE('',*,*,#254,.T.);
#202=ORIENTED_EDGE('',*,*,#256,.F.);
#203=ORIENTED_EDGE('',*,*,#255,.T.);
#204=ORIENTED_EDGE('',*,*,#257,.F.);
#205=ORIENTED_EDGE('',*,*,#256,.T.);
#206=ORIENTED_EDGE('',*,*,#258,.F.);
#207=ORIENTED_EDGE('',*,*,#257,.T.);
#208=ORIENTED_EDGE('',*,*,#259,.F.);
#209=ORIENTED_EDGE('',*,*,#258,.T.);
#210=ORIENTED_EDGE('',*,*,#260,.F.);
#211=ORIENTED_EDGE('',*,*,#259,.T.);
#212=ORIENTED_EDGE('',*,*,#261,.F.);
#213=ORIENTED_EDGE('',*,*,#260,.T.);
#214=ORIENTED_EDGE('',*,*,#261,.T.);
#215=ORIENTED_EDGE('',*,*,#240,.F.);
#216=VERTEX_POINT('',#444);
#217=VERTEX_POINT('',#446);
#218=VERTEX_POINT('',#449);
#219=VERTEX_POINT('',#452);
#220=VERTEX_POINT('',#455);
#221=VERTEX_POINT('',#458);
#222=VERTEX_POINT('',#461);
#223=VERTEX_POINT('',#464);
#224=VERTEX_POINT('',#467);
#225=VERTEX_POINT('',#470);
#226=VERTEX_POINT('',#473);
#227=VERTEX_POINT('',#476);
#228=VERTEX_POINT('',#479);
#229=VERTEX_POINT('',#482);
#230=VERTEX_POINT('',#485);
#231=VERTEX_POINT('',#488);
#232=VERTEX_POINT('',#491);
#233=VERTEX_POINT('',#494);
#234=VERTEX_POINT('',#497);
#235=VERTEX_POINT('',#500);
#236=VERTEX_POINT('',#503);
#237=VERTEX_POINT('',#506);
#238=VERTEX_POINT('',#509);
#239=EDGE_CURVE('',#216,#216,#262,.T.);
#240=EDGE_CURVE('',#217,#217,#263,.T.);
#241=EDGE_CURVE('',#218,#218,#264,.T.);
#242=EDGE_CURVE('',#219,#219,#265,.T.);
#243=EDGE_CURVE('',#220,#220,#266,.T.);
#244=EDGE_CURVE('',#221,#221,#267,.T.);
#245=EDGE_CURVE('',#222,#222,#268,.T.);
#246=EDGE_CURVE('',#223,#223,#269,.T.);
#247=EDGE_CURVE('',#224,#224,#270,.T.);
#248=EDGE_CURVE('',#225,#225,#271,.T.);
#249=EDGE_CURVE('',#226,#226,#272,.T.);
#250=EDGE_CURVE('',#227,#227,#273,.T.);
#251=EDGE_CURVE('',#228,#228,#274,.T.);
#252=EDGE_CURVE('',#229,#229,#275,.T.);
#253=EDGE_CURVE('',#230,#230,#276,.T.);
#254=EDGE_CURVE('',#231,#231,#277,.T.);
#255=EDGE_CURVE('',#232,#232,#278,.T.);
#256=EDGE_CURVE('',#233,#233,#279,.T.);
#257=EDGE_CURVE('',#234,#234,#280,.T.);
#258=EDGE_CURVE('',#235,#235,#281,.T.);
#259=EDGE_CURVE('',#236,#236,#282,.T.);
#260=EDGE_CURVE('',#237,#237,#283,.T.);
#261=EDGE_CURVE('',#238,#238,#284,.T.);
#262=CIRCLE('',#296,54.0770912289759);
#263=CIRCLE('',#297,30.3992183372073);
#264=CIRCLE('',#299,53.75);
#265=CIRCLE('',#301,53.75);
#266=CIRCLE('',#303,54.35);
#267=CIRCLE('',#305,77.475);
#268=CIRCLE('',#307,77.475);
#269=CIRCLE('',#309,75.1875471694755);
#270=CIRCLE('',#311,73.725);
#271=CIRCLE('',#313,73.725);
#272=CIRCLE('',#315,75.1875471694755);
#273=CIRCLE('',#317,77.475);
#274=CIRCLE('',#319,77.475);
#275=CIRCLE('',#321,50.0);
#276=CIRCLE('',#323,50.0);
#277=CIRCLE('',#325,49.3);
#278=CIRCLE('',#327,48.5720595314676);
#279=CIRCLE('',#329,49.3);
#280=CIRCLE('',#331,50.0);
#281=CIRCLE('',#333,50.0);
#282=CIRCLE('',#335,12.0);
#283=CIRCLE('',#337,12.0);
#284=CIRCLE('',#339,10.5);
#285=PRESENTATION_LAYER_ASSIGNMENT('1','Layer 1',(#295,#28));
#286=STYLED_ITEM('',(#288),#295);
#287=STYLED_ITEM('',(#289),#28);
#288=PRESENTATION_STYLE_ASSIGNMENT((#290));
#289=PRESENTATION_STYLE_ASSIGNMENT((#23));
#290=CURVE_STYLE('',#293,POSITIVE_LENGTH_MEASURE(0.176388888888889),#291);
#291=COLOUR_RGB('Deep Blue',0.0,0.0,0.752941176470588);
#292=COLOUR_RGB('Medium Gray',0.490196078431373,0.490196078431373,0.490196078431373);
#293=DRAUGHTING_PRE_DEFINED_CURVE_FONT('continuous');
#294=AXIS2_PLACEMENT_3D('',#441,#343,#344);
#295=AXIS2_PLACEMENT_3D('',#442,#345,#346);
#296=AXIS2_PLACEMENT_3D('',#443,#347,#348);
#297=AXIS2_PLACEMENT_3D('',#445,#349,#350);
#298=AXIS2_PLACEMENT_3D('',#447,#351,#352);
#299=AXIS2_PLACEMENT_3D('',#448,#353,#354);
#300=AXIS2_PLACEMENT_3D('',#450,#355,#356);
#301=AXIS2_PLACEMENT_3D('',#451,#357,#358);
#302=AXIS2_PLACEMENT_3D('',#453,#359,#360);
#303=AXIS2_PLACEMENT_3D('',#454,#361,#362);
#304=AXIS2_PLACEMENT_3D('',#456,#363,#364);
#305=AXIS2_PLACEMENT_3D('',#457,#365,#366);
#306=AXIS2_PLACEMENT_3D('',#459,#367,#368);
#307=AXIS2_PLACEMENT_3D('',#460,#369,#370);
#308=AXIS2_PLACEMENT_3D('',#462,#371,#372);
#309=AXIS2_PLACEMENT_3D('',#463,#373,#374);
#310=AXIS2_PLACEMENT_3D('',#465,#375,#376);
#311=AXIS2_PLACEMENT_3D('',#466,#377,#378);
#312=AXIS2_PLACEMENT_3D('',#468,#379,#380);
#313=AXIS2_PLACEMENT_3D('',#469,#381,#382);
#314=AXIS2_PLACEMENT_3D('',#471,#383,#384);
#315=AXIS2_PLACEMENT_3D('',#472,#385,#386);
#316=AXIS2_PLACEMENT_3D('',#474,#387,#388);
#317=AXIS2_PLACEMENT_3D('',#475,#389,#390);
#318=AXIS2_PLACEMENT_3D('',#477,#391,#392);
#319=AXIS2_PLACEMENT_3D('',#478,#393,#394);
#320=AXIS2_PLACEMENT_3D('',#480,#395,#396);
#321=AXIS2_PLACEMENT_3D('',#481,#397,#398);
#322=AXIS2_PLACEMENT_3D('',#483,#399,#400);
#323=AXIS2_PLACEMENT_3D('',#484,#401,#402);
#324=AXIS2_PLACEMENT_3D('',#486,#403,#404);
#325=AXIS2_PLACEMENT_3D('',#487,#405,#406);
#326=AXIS2_PLACEMENT_3D('',#489,#407,#408);
#327=AXIS2_PLACEMENT_3D('',#490,#409,#410);
#328=AXIS2_PLACEMENT_3D('',#492,#411,#412);
#329=AXIS2_PLACEMENT_3D('',#493,#413,#414);
#330=AXIS2_PLACEMENT_3D('',#495,#415,#416);
#331=AXIS2_PLACEMENT_3D('',#496,#417,#418);
#332=AXIS2_PLACEMENT_3D('',#498,#419,#420);
#333=AXIS2_PLACEMENT_3D('',#499,#421,#422);
#334=AXIS2_PLACEMENT_3D('',#501,#423,#424);
#335=AXIS2_PLACEMENT_3D('',#502,#425,#426);
#336=AXIS2_PLACEMENT_3D('',#504,#427,#428);
#337=AXIS2_PLACEMENT_3D('',#505,#429,#430);
#338=AXIS2_PLACEMENT_3D('',#507,#431,#432);
#339=AXIS2_PLACEMENT_3D('',#508,#433,#434);
#340=AXIS2_PLACEMENT_3D('',#510,#435,#436);
#341=AXIS2_PLACEMENT_3D('',#511,#437,#438);
#342=AXIS2_PLACEMENT_3D('',#512,#439,#440);
#343=DIRECTION('',(0.0,0.0,1.0));
#344=DIRECTION('',(1.0,0.0,0.0));
#345=DIRECTION('',(0.0,0.0,1.0));
#346=DIRECTION('',(1.0,0.0,0.0));
#347=DIRECTION('',(0.0,0.0,-1.0));
#348=DIRECTION('',(-1.0,0.0,0.0));
#349=DIRECTION('',(0.0,0.0,-1.0));
#350=DIRECTION('',(-1.0,0.0,0.0));
#351=DIRECTION('',(0.0,0.0,-1.0));
#352=DIRECTION('',(-1.0,0.0,1.57483955228157E-16));
#353=DIRECTION('',(0.0,0.0,-1.0));
#354=DIRECTION('',(-1.0,0.0,0.0));
#355=DIRECTION('',(0.0,0.0,1.0));
#356=DIRECTION('',(1.0,0.0,0.0));
#357=DIRECTION('',(0.0,0.0,-1.0));
#358=DIRECTION('',(-1.0,0.0,0.0));
#359=DIRECTION('',(0.0,0.0,-1.0));
#360=DIRECTION('',(-1.0,0.0,0.0));
#361=DIRECTION('',(0.0,0.0,-1.0));
#362=DIRECTION('',(-1.0,0.0,0.0));
#363=DIRECTION('',(0.0,0.0,-1.0));
#364=DIRECTION('',(-1.0,0.0,0.0));
#365=DIRECTION('',(0.0,0.0,-1.0));
#366=DIRECTION('',(-1.0,0.0,0.0));
#367=DIRECTION('',(0.0,0.0,-1.0));
#368=DIRECTION('',(-1.0,0.0,0.0));
#369=DIRECTION('',(0.0,0.0,-1.0));
#370=DIRECTION('',(-1.0,0.0,0.0));
#371=DIRECTION('',(0.0,0.0,-1.0));
#372=DIRECTION('',(-1.0,0.0,0.0));
#373=DIRECTION('',(0.0,0.0,-1.0));
#374=DIRECTION('',(-1.0,0.0,0.0));
#375=DIRECTION('',(0.0,0.0,1.0));
#376=DIRECTION('',(1.0,0.0,0.0));
#377=DIRECTION('',(0.0,0.0,-1.0));
#378=DIRECTION('',(-1.0,0.0,0.0));
#379=DIRECTION('',(0.0,0.0,1.0));
#380=DIRECTION('',(1.0,0.0,0.0));
#381=DIRECTION('',(0.0,0.0,-1.0));
#382=DIRECTION('',(-1.0,0.0,0.0));
#383=DIRECTION('',(0.0,0.0,-1.0));
#384=DIRECTION('',(-1.0,0.0,0.0));
#385=DIRECTION('',(0.0,0.0,-1.0));
#386=DIRECTION('',(-1.0,0.0,0.0));
#387=DIRECTION('',(0.0,0.0,-1.0));
#388=DIRECTION('',(-1.0,0.0,0.0));
#389=DIRECTION('',(0.0,0.0,-1.0));
#390=DIRECTION('',(-1.0,0.0,0.0));
#391=DIRECTION('',(0.0,0.0,-1.0));
#392=DIRECTION('',(-1.0,0.0,-4.60740148794283E-17));
#393=DIRECTION('',(0.0,0.0,-1.0));
#394=DIRECTION('',(-1.0,0.0,0.0));
#395=DIRECTION('',(0.0,0.0,-1.0));
#396=DIRECTION('',(-1.0,0.0,0.0));
#397=DIRECTION('',(0.0,0.0,-1.0));
#398=DIRECTION('',(-1.0,0.0,0.0));
#399=DIRECTION('',(0.0,0.0,1.0));
#400=DIRECTION('',(1.0,0.0,0.0));
#401=DIRECTION('',(0.0,0.0,-1.0));
#402=DIRECTION('',(-1.0,0.0,0.0));
#403=DIRECTION('',(0.0,0.0,-1.0));
#404=DIRECTION('',(-1.0,0.0,0.0));
#405=DIRECTION('',(0.0,0.0,-1.0));
#406=DIRECTION('',(-1.0,0.0,0.0));
#407=DIRECTION('',(0.0,0.0,1.0));
#408=DIRECTION('',(1.0,0.0,0.0));
#409=DIRECTION('',(0.0,0.0,-1.0));
#410=DIRECTION('',(-1.0,0.0,0.0));
#411=DIRECTION('',(0.0,0.0,1.0));
#412=DIRECTION('',(1.0,0.0,-6.71608388755881E-17));
#413=DIRECTION('',(0.0,0.0,-1.0));
#414=DIRECTION('',(-1.0,0.0,0.0));
#415=DIRECTION('',(0.0,0.0,-1.0));
#416=DIRECTION('',(-1.0,0.0,-6.72793457371951E-17));
#417=DIRECTION('',(0.0,0.0,-1.0));
#418=DIRECTION('',(-1.0,0.0,0.0));
#419=DIRECTION('',(0.0,0.0,-1.0));
#420=DIRECTION('',(-1.0,0.0,0.0));
#421=DIRECTION('',(0.0,0.0,-1.0));
#422=DIRECTION('',(-1.0,0.0,0.0));
#423=DIRECTION('',(0.0,0.0,-1.0));
#424=DIRECTION('',(-1.0,0.0,0.0));
#425=DIRECTION('',(0.0,0.0,-1.0));
#426=DIRECTION('',(-1.0,0.0,0.0));
#427=DIRECTION('',(0.0,0.0,1.0));
#428=DIRECTION('',(1.0,0.0,0.0));
#429=DIRECTION('',(0.0,0.0,-1.0));
#430=DIRECTION('',(-1.0,0.0,0.0));
#431=DIRECTION('',(0.0,0.0,-1.0));
#432=DIRECTION('',(-1.0,0.0,0.0));
#433=DIRECTION('',(0.0,0.0,-1.0));
#434=DIRECTION('',(-1.0,0.0,0.0));
#435=DIRECTION('',(0.0,0.0,1.0));
#436=DIRECTION('',(1.0,0.0,-5.48529162364208E-17));
#437=DIRECTION('',(0.0,0.0,1.0));
#438=DIRECTION('',(1.0,0.0,0.0));
#439=DIRECTION('',(0.0,0.0,-1.0));
#440=DIRECTION('',(-1.0,0.0,0.0));
#441=CARTESIAN_POINT('',(0.0,0.0,0.0));
#442=CARTESIAN_POINT('',(0.0,-1.06581410364015E-14,-3.20000000000001));
#443=CARTESIAN_POINT('',(0.0,-1.06581410364015E-14,-0.699999999999923));
#444=CARTESIAN_POINT('',(-54.0770912289759,-1.06581410364015E-14,-0.699999999999923));
#445=CARTESIAN_POINT('',(0.0,-1.06581410364015E-14,161.65));
#446=CARTESIAN_POINT('',(-30.3992183372073,-1.06581410364015E-14,161.65));
#447=CARTESIAN_POINT('',(0.0,-1.06581410364015E-14,161.65));
#448=CARTESIAN_POINT('',(0.0,-1.06581410364015E-14,-1.26653862729642));
#449=CARTESIAN_POINT('',(-53.75,-1.06581410364015E-14,-1.26653862729642));
#450=CARTESIAN_POINT('',(0.0,-1.06581410364015E-14,-0.699999999999923));
#451=CARTESIAN_POINT('',(0.0,-1.06581410364015E-14,-2.59999999999999));
#452=CARTESIAN_POINT('',(-53.75,-1.06581410364015E-14,-2.59999999999999));
#453=CARTESIAN_POINT('',(0.0,-1.06581410364015E-14,161.65));
#454=CARTESIAN_POINT('',(0.0,-1.06581410364015E-14,-3.19999999999998));
#455=CARTESIAN_POINT('',(-54.35,-1.06581410364015E-14,-3.19999999999998));
#456=CARTESIAN_POINT('',(0.0,-1.38777878078145E-14,-2.59999999999999));
#457=CARTESIAN_POINT('',(0.0,-1.06581410364015E-14,-3.20000000000001));
#458=CARTESIAN_POINT('',(-77.475,-1.06581410364015E-14,-3.20000000000001));
#459=CARTESIAN_POINT('',(0.0,-54.35,-3.2));
#460=CARTESIAN_POINT('',(0.0,-1.06581410364015E-14,-7.86683849253811));
#461=CARTESIAN_POINT('',(-77.475,-1.06581410364015E-14,-7.86683849253811));
#462=CARTESIAN_POINT('',(0.0,-1.06581410364015E-14,161.65));
#463=CARTESIAN_POINT('',(0.0,-1.06581410364015E-14,-9.18750000000001));
#464=CARTESIAN_POINT('',(-75.1875471694755,-1.06581410364015E-14,-9.18750000000001));
#465=CARTESIAN_POINT('',(0.0,-1.06581410364015E-14,-7.86683849253811));
#466=CARTESIAN_POINT('',(0.0,-1.06581410364015E-14,-9.18750000000001));
#467=CARTESIAN_POINT('',(-73.725,-1.06581410364015E-14,-9.18750000000001));
#468=CARTESIAN_POINT('',(0.0,-75.1875471694755,-9.18750000000001));
#469=CARTESIAN_POINT('',(0.0,-1.06581410364015E-14,-13.0125));
#470=CARTESIAN_POINT('',(-73.725,-1.06581410364015E-14,-13.0125));
#471=CARTESIAN_POINT('',(0.0,-1.06581410364015E-14,161.65));
#472=CARTESIAN_POINT('',(0.0,-1.06581410364015E-14,-13.0125));
#473=CARTESIAN_POINT('',(-75.1875471694755,-1.06581410364015E-14,-13.0125));
#474=CARTESIAN_POINT('',(0.0,-73.725,-13.0125));
#475=CARTESIAN_POINT('',(0.0,-1.06581410364015E-14,-14.3331615074619));
#476=CARTESIAN_POINT('',(-77.475,-1.06581410364015E-14,-14.3331615074619));
#477=CARTESIAN_POINT('',(0.0,-1.06581410364015E-14,-13.0125));
#478=CARTESIAN_POINT('',(0.0,-1.06581410364015E-14,-19.05));
#479=CARTESIAN_POINT('',(-77.475,-1.06581410364015E-14,-19.05));
#480=CARTESIAN_POINT('',(0.0,-1.06581410364015E-14,161.65));
#481=CARTESIAN_POINT('',(0.0,-1.06581410364015E-14,-19.05));
#482=CARTESIAN_POINT('',(-50.0,-1.06581410364015E-14,-19.05));
#483=CARTESIAN_POINT('',(0.0,-77.475,-19.05));
#484=CARTESIAN_POINT('',(0.0,-1.06581410364015E-14,-36.0));
#485=CARTESIAN_POINT('',(-50.0,-1.06581410364015E-14,-36.0));
#486=CARTESIAN_POINT('',(0.0,-1.06581410364015E-14,161.65));
#487=CARTESIAN_POINT('',(0.0,-1.06581410364015E-14,-36.0));
#488=CARTESIAN_POINT('',(-49.3,-1.06581410364015E-14,-36.0));
#489=CARTESIAN_POINT('',(8.28990934527228E-15,-50.0,-36.0));
#490=CARTESIAN_POINT('',(0.0,-1.06581410364015E-14,-38.0));
#491=CARTESIAN_POINT('',(-48.5720595314676,-1.06581410364015E-14,-38.0));
#492=CARTESIAN_POINT('',(0.0,-1.06581410364015E-14,-36.0));
#493=CARTESIAN_POINT('',(0.0,-1.06581410364015E-14,-40.0));
#494=CARTESIAN_POINT('',(-49.3,-1.06581410364015E-14,-40.0));
#495=CARTESIAN_POINT('',(0.0,-1.06581410364015E-14,-38.0));
#496=CARTESIAN_POINT('',(0.0,-1.06581410364015E-14,-40.0));
#497=CARTESIAN_POINT('',(-50.0,-1.06581410364015E-14,-40.0));
#498=CARTESIAN_POINT('',(8.58005617235682E-15,-49.3,-40.0));
#499=CARTESIAN_POINT('',(0.0,-1.06581410364015E-14,-50.0));
#500=CARTESIAN_POINT('',(-50.0,-1.06581410364015E-14,-50.0));
#501=CARTESIAN_POINT('',(0.0,-1.06581410364015E-14,161.65));
#502=CARTESIAN_POINT('',(0.0,-1.06581410364015E-14,-50.0));
#503=CARTESIAN_POINT('',(-12.0,-1.06581410364015E-14,-50.0));
#504=CARTESIAN_POINT('',(0.0,-33.1811479933961,-50.0));
#505=CARTESIAN_POINT('',(0.0,-1.06581410364015E-14,-56.0));
#506=CARTESIAN_POINT('',(-12.0,-1.06581410364015E-14,-56.0));
#507=CARTESIAN_POINT('',(0.0,-1.06581410364015E-14,161.65));
#508=CARTESIAN_POINT('',(0.0,-1.06581410364015E-14,-57.5));
#509=CARTESIAN_POINT('',(-10.5,-1.06581410364015E-14,-57.5));
#510=CARTESIAN_POINT('',(0.0,-1.06581410364015E-14,-56.0));
#511=CARTESIAN_POINT('',(0.0,-10.5,-57.5));
#512=CARTESIAN_POINT('',(0.0,-1.06581410364015E-14,161.65));
#513=MECHANICAL_DESIGN_GEOMETRIC_PRESENTATION_REPRESENTATION('',(#286,#287),#514);
#514=(GEOMETRIC_REPRESENTATION_CONTEXT(3)GLOBAL_UNCERTAINTY_ASSIGNED_CONTEXT((#515))
     GLOBAL_UNIT_ASSIGNED_CONTEXT((#521,#517,#516))REPRESENTATION_CONTEXT('C10-390',
     'TOP_LEVEL_ASSEMBLY_PART'));
#515=UNCERTAINTY_MEASURE_WITH_UNIT(LENGTH_MEASURE(2.0E-5),#521,'DISTANCE_ACCURACY_VALUE',
     'Maximum Tolerance applied to model');
#516=(NAMED_UNIT(*)SI_UNIT($,.STERADIAN.)SOLID_ANGLE_UNIT());
#517=(CONVERSION_BASED_UNIT('DEGREE',#519)NAMED_UNIT(*)PLANE_ANGLE_UNIT());
#518=DIMENSIONAL_EXPONENTS(0.0,0.0,0.0,0.0,0.0,0.0,0.0);
#519=PLANE_ANGLE_MEASURE_WITH_UNIT(PLANE_ANGLE_MEASURE(0.0174532925),#520);
#520=(NAMED_UNIT(*)PLANE_ANGLE_UNIT()SI_UNIT($,.RADIAN.));
#521=(LENGTH_UNIT()NAMED_UNIT(*)SI_UNIT(.MILLI.,.METRE.));
#522=CARTESIAN_POINT('',(0.0,0.0,0.0));
#523=DIRECTION('',(0.0,0.0,1.0));
#524=DIRECTION('',(1.0,0.0,0.0));
#525=AXIS2_PLACEMENT_3D('PCS',#522,#523,#524);
#526=CARTESIAN_POINT('',(0.0,0.0,0.0));
#527=DIRECTION('',(0.0,0.0,1.0));
#528=DIRECTION('',(1.0,0.0,0.0));
#529=AXIS2_PLACEMENT_3D('MCS',#526,#527,#528);
#530=CARTESIAN_POINT('',(0.0,0.0,-50.0));
#531=DIRECTION('',(0.0,0.0,1.0));
#532=DIRECTION('',(1.0,0.0,0.0));
#533=AXIS2_PLACEMENT_3D('CSW',#530,#531,#532);
#534=CONSTRUCTIVE_GEOMETRY_REPRESENTATION('supplemental geometry',(#525,#529,#533),
     #514);
#535=CONSTRUCTIVE_GEOMETRY_REPRESENTATION_RELATIONSHIP('supplemental geometry',$,
     #22,#534);
ENDSEC;
END-ISO-10303-21;
