ISO-10303-21;
HEADER;
FILE_DESCRIPTION(
/* description */ ('3-D model version:1'),
/* implementation_level */ '2;1');
FILE_NAME(
/* name */ 'C3-391.EH-16110',
/* time_stamp */ '2016-12-02T13:57:25',
/* author */ ('InteractiveCad'),
/* organization */ ('AB Sandvik Coromant'),
/* preprocessor_version */ 'ST-DEVELOPER v11',
/* originating_system */ 'SIEMENS UGS NX 6.0',
/* authorization */ '');
FILE_SCHEMA(('AUTOMOTIVE_DESIGN'));
ENDSEC;
DATA;
#10=SHAPE_REPRESENTATION_RELATIONSHIP('None','relationship between ds68DC2Drqds-None and ds68DC2Drqds-None',
     #22,#11);
#11=ADVANCED_BREP_SHAPE_REPRESENTATION('ds68DC2Drqds-None',(#32),#409);
#12=SHAPE_DEFINITION_REPRESENTATION(#13,#22);
#13=PRODUCT_DEFINITION_SHAPE('','',#14);
#14=PRODUCT_DEFINITION(' ','',#16,#15);
#15=PRODUCT_DEFINITION_CONTEXT('part definition',#21,'design');
#16=PRODUCT_DEFINITION_FORMATION_WITH_SPECIFIED_SOURCE(' ',' ',#18,.NOT_KNOWN.);
#17=PRODUCT_RELATED_PRODUCT_CATEGORY('part','',(#18));
#18=PRODUCT('ds68DC2Drqds','ds68DC2Drqds',' ',(#19));
#19=PRODUCT_CONTEXT(' ',#21,'mechanical');
#20=APPLICATION_PROTOCOL_DEFINITION('international standard','automotive_design',
     2001,#21);
#21=APPLICATION_CONTEXT('core data for automotive mechanical design processes');
#22=SHAPE_REPRESENTATION('ds68DC2Drqds-None',(#225),#409);
#23=PRESENTATION_LAYER_ASSIGNMENT('1','Layer 1',(#32));
#24=STYLED_ITEM('',(#25),#32);
#25=PRESENTATION_STYLE_ASSIGNMENT((#26));
#26=SURFACE_STYLE_USAGE(.BOTH.,#27);
#27=SURFACE_SIDE_STYLE('',(#28));
#28=SURFACE_STYLE_FILL_AREA(#29);
#29=FILL_AREA_STYLE('',(#30));
#30=FILL_AREA_STYLE_COLOUR('',#31);
#31=COLOUR_RGB('Medium Gray',0.490196078431373,0.490196078431373,0.490196078431373);
#32=MANIFOLD_SOLID_BREP('NOCUT',#33);
#33=CLOSED_SHELL('',(#57,#58,#59,#60,#61,#62,#63,#64,#65,#66,#67,#68,#69));
#34=FACE_BOUND('',#97,.T.);
#35=FACE_BOUND('',#98,.T.);
#36=FACE_BOUND('',#99,.T.);
#37=FACE_BOUND('',#100,.T.);
#38=FACE_BOUND('',#102,.T.);
#39=FACE_BOUND('',#103,.T.);
#40=PLANE('',#251);
#41=PLANE('',#257);
#42=PLANE('',#258);
#43=LINE('',#362,#49);
#44=LINE('',#366,#50);
#45=LINE('',#374,#51);
#46=LINE('',#378,#52);
#47=LINE('',#384,#53);
#48=LINE('',#390,#54);
#49=VECTOR('',#275,1.0);
#50=VECTOR('',#278,1.0);
#51=VECTOR('',#287,1.0);
#52=VECTOR('',#292,1.0);
#53=VECTOR('',#299,1.0);
#54=VECTOR('',#306,1.0);
#55=CYLINDRICAL_SURFACE('',#231,4.0);
#56=CYLINDRICAL_SURFACE('',#254,16.0);
#57=ADVANCED_FACE('',(#78),#70,.F.);
#58=ADVANCED_FACE('',(#79),#55,.F.);
#59=ADVANCED_FACE('',(#80),#71,.T.);
#60=ADVANCED_FACE('',(#81),#72,.T.);
#61=ADVANCED_FACE('',(#82),#73,.T.);
#62=ADVANCED_FACE('',(#83),#74,.T.);
#63=ADVANCED_FACE('',(#84),#75,.T.);
#64=ADVANCED_FACE('',(#85),#76,.T.);
#65=ADVANCED_FACE('',(#86),#40,.T.);
#66=ADVANCED_FACE('',(#34,#35),#56,.T.);
#67=ADVANCED_FACE('',(#36,#37),#77,.T.);
#68=ADVANCED_FACE('',(#87),#41,.F.);
#69=ADVANCED_FACE('',(#38,#39),#42,.F.);
#70=CONICAL_SURFACE('',#227,2.0,45.0);
#71=CONICAL_SURFACE('',#235,14.9999975642769,1.43916999999995);
#72=CONICAL_SURFACE('',#238,6.00000517228696,1.43916999999995);
#73=CONICAL_SURFACE('',#241,6.00000517228696,1.43916999999995);
#74=CONICAL_SURFACE('',#244,14.9999993910693,1.43916999999995);
#75=CONICAL_SURFACE('',#247,6.00000835704711,1.43916999999995);
#76=CONICAL_SURFACE('',#250,14.9999993910693,1.43916999999995);
#77=CONICAL_SURFACE('',#256,16.0,4.99316287504405);
#78=FACE_OUTER_BOUND('',#88,.T.);
#79=FACE_OUTER_BOUND('',#89,.T.);
#80=FACE_OUTER_BOUND('',#90,.T.);
#81=FACE_OUTER_BOUND('',#91,.T.);
#82=FACE_OUTER_BOUND('',#92,.T.);
#83=FACE_OUTER_BOUND('',#93,.T.);
#84=FACE_OUTER_BOUND('',#94,.T.);
#85=FACE_OUTER_BOUND('',#95,.T.);
#86=FACE_OUTER_BOUND('',#96,.T.);
#87=FACE_OUTER_BOUND('',#101,.T.);
#88=EDGE_LOOP('',(#124,#125));
#89=EDGE_LOOP('',(#126,#127,#128,#129));
#90=EDGE_LOOP('',(#130,#131,#132,#133,#134,#135,#136,#137));
#91=EDGE_LOOP('',(#138,#139,#140,#141));
#92=EDGE_LOOP('',(#142,#143,#144,#145));
#93=EDGE_LOOP('',(#146,#147,#148,#149));
#94=EDGE_LOOP('',(#150,#151,#152,#153));
#95=EDGE_LOOP('',(#154,#155,#156,#157));
#96=EDGE_LOOP('',(#158,#159,#160,#161,#162,#163,#164,#165));
#97=EDGE_LOOP('',(#166));
#98=EDGE_LOOP('',(#167));
#99=EDGE_LOOP('',(#168));
#100=EDGE_LOOP('',(#169));
#101=EDGE_LOOP('',(#170));
#102=EDGE_LOOP('',(#171,#172,#173,#174,#175,#176));
#103=EDGE_LOOP('',(#177));
#104=CIRCLE('',#226,4.0);
#105=CIRCLE('',#228,2103.17546319548);
#106=CIRCLE('',#229,4.0);
#107=CIRCLE('',#230,2103.17546325638);
#108=CIRCLE('',#232,14.5854591720589);
#109=CIRCLE('',#233,15.0628064115827);
#110=CIRCLE('',#234,14.5854591720589);
#111=CIRCLE('',#236,5.58546678006898);
#112=CIRCLE('',#237,6.06281401959271);
#113=CIRCLE('',#239,5.58546678006898);
#114=CIRCLE('',#240,6.06281401959271);
#115=CIRCLE('',#242,14.5854609988514);
#116=CIRCLE('',#243,15.0628082383751);
#117=CIRCLE('',#245,5.58546996482912);
#118=CIRCLE('',#246,6.06281720435286);
#119=CIRCLE('',#248,14.5854609988514);
#120=CIRCLE('',#249,15.0628082383751);
#121=CIRCLE('',#252,16.0);
#122=CIRCLE('',#253,16.0);
#123=CIRCLE('',#255,7.7);
#124=ORIENTED_EDGE('',*,*,#197,.T.);
#125=ORIENTED_EDGE('',*,*,#198,.F.);
#126=ORIENTED_EDGE('',*,*,#199,.F.);
#127=ORIENTED_EDGE('',*,*,#200,.F.);
#128=ORIENTED_EDGE('',*,*,#201,.F.);
#129=ORIENTED_EDGE('',*,*,#198,.T.);
#130=ORIENTED_EDGE('',*,*,#199,.T.);
#131=ORIENTED_EDGE('',*,*,#197,.F.);
#132=ORIENTED_EDGE('',*,*,#201,.T.);
#133=ORIENTED_EDGE('',*,*,#202,.T.);
#134=ORIENTED_EDGE('',*,*,#203,.F.);
#135=ORIENTED_EDGE('',*,*,#204,.T.);
#136=ORIENTED_EDGE('',*,*,#205,.T.);
#137=ORIENTED_EDGE('',*,*,#206,.T.);
#138=ORIENTED_EDGE('',*,*,#207,.T.);
#139=ORIENTED_EDGE('',*,*,#205,.F.);
#140=ORIENTED_EDGE('',*,*,#208,.T.);
#141=ORIENTED_EDGE('',*,*,#209,.T.);
#142=ORIENTED_EDGE('',*,*,#210,.T.);
#143=ORIENTED_EDGE('',*,*,#211,.F.);
#144=ORIENTED_EDGE('',*,*,#212,.T.);
#145=ORIENTED_EDGE('',*,*,#203,.T.);
#146=ORIENTED_EDGE('',*,*,#213,.T.);
#147=ORIENTED_EDGE('',*,*,#214,.F.);
#148=ORIENTED_EDGE('',*,*,#215,.T.);
#149=ORIENTED_EDGE('',*,*,#211,.T.);
#150=ORIENTED_EDGE('',*,*,#216,.T.);
#151=ORIENTED_EDGE('',*,*,#217,.F.);
#152=ORIENTED_EDGE('',*,*,#218,.T.);
#153=ORIENTED_EDGE('',*,*,#214,.T.);
#154=ORIENTED_EDGE('',*,*,#219,.T.);
#155=ORIENTED_EDGE('',*,*,#209,.F.);
#156=ORIENTED_EDGE('',*,*,#220,.T.);
#157=ORIENTED_EDGE('',*,*,#217,.T.);
#158=ORIENTED_EDGE('',*,*,#200,.T.);
#159=ORIENTED_EDGE('',*,*,#206,.F.);
#160=ORIENTED_EDGE('',*,*,#207,.F.);
#161=ORIENTED_EDGE('',*,*,#219,.F.);
#162=ORIENTED_EDGE('',*,*,#216,.F.);
#163=ORIENTED_EDGE('',*,*,#213,.F.);
#164=ORIENTED_EDGE('',*,*,#210,.F.);
#165=ORIENTED_EDGE('',*,*,#202,.F.);
#166=ORIENTED_EDGE('',*,*,#221,.F.);
#167=ORIENTED_EDGE('',*,*,#222,.T.);
#168=ORIENTED_EDGE('',*,*,#223,.F.);
#169=ORIENTED_EDGE('',*,*,#221,.T.);
#170=ORIENTED_EDGE('',*,*,#223,.T.);
#171=ORIENTED_EDGE('',*,*,#218,.F.);
#172=ORIENTED_EDGE('',*,*,#220,.F.);
#173=ORIENTED_EDGE('',*,*,#208,.F.);
#174=ORIENTED_EDGE('',*,*,#204,.F.);
#175=ORIENTED_EDGE('',*,*,#212,.F.);
#176=ORIENTED_EDGE('',*,*,#215,.F.);
#177=ORIENTED_EDGE('',*,*,#222,.F.);
#178=VERTEX_POINT('',#350);
#179=VERTEX_POINT('',#351);
#180=VERTEX_POINT('',#355);
#181=VERTEX_POINT('',#357);
#182=VERTEX_POINT('',#361);
#183=VERTEX_POINT('',#363);
#184=VERTEX_POINT('',#365);
#185=VERTEX_POINT('',#367);
#186=VERTEX_POINT('',#371);
#187=VERTEX_POINT('',#373);
#188=VERTEX_POINT('',#377);
#189=VERTEX_POINT('',#379);
#190=VERTEX_POINT('',#383);
#191=VERTEX_POINT('',#385);
#192=VERTEX_POINT('',#389);
#193=VERTEX_POINT('',#391);
#194=VERTEX_POINT('',#399);
#195=VERTEX_POINT('',#401);
#196=VERTEX_POINT('',#404);
#197=EDGE_CURVE('',#178,#179,#224,.T.);
#198=EDGE_CURVE('',#178,#179,#104,.T.);
#199=EDGE_CURVE('',#180,#179,#105,.T.);
#200=EDGE_CURVE('',#181,#180,#106,.T.);
#201=EDGE_CURVE('',#178,#181,#107,.T.);
#202=EDGE_CURVE('',#181,#182,#108,.T.);
#203=EDGE_CURVE('',#183,#182,#43,.T.);
#204=EDGE_CURVE('',#183,#184,#109,.T.);
#205=EDGE_CURVE('',#184,#185,#44,.T.);
#206=EDGE_CURVE('',#185,#180,#110,.T.);
#207=EDGE_CURVE('',#186,#185,#111,.T.);
#208=EDGE_CURVE('',#184,#187,#112,.T.);
#209=EDGE_CURVE('',#187,#186,#45,.T.);
#210=EDGE_CURVE('',#182,#188,#113,.T.);
#211=EDGE_CURVE('',#189,#188,#46,.T.);
#212=EDGE_CURVE('',#189,#183,#114,.T.);
#213=EDGE_CURVE('',#188,#190,#115,.T.);
#214=EDGE_CURVE('',#191,#190,#47,.T.);
#215=EDGE_CURVE('',#191,#189,#116,.T.);
#216=EDGE_CURVE('',#190,#192,#117,.T.);
#217=EDGE_CURVE('',#193,#192,#48,.T.);
#218=EDGE_CURVE('',#193,#191,#118,.T.);
#219=EDGE_CURVE('',#192,#186,#119,.T.);
#220=EDGE_CURVE('',#187,#193,#120,.T.);
#221=EDGE_CURVE('',#194,#194,#121,.T.);
#222=EDGE_CURVE('',#195,#195,#122,.T.);
#223=EDGE_CURVE('',#196,#196,#123,.T.);
#224=B_SPLINE_CURVE_WITH_KNOTS('',3,(#334,#335,#336,#337,#338,#339,#340,#341,#342,
     #343,#344,#345,#346,#347,#348,#349),.UNSPECIFIED.,.F.,.F.,(4,3,3,3,3,4),(0.0,
     0.2800596981137,0.451536062893216,0.625138107805911,0.856610091405707,1.0),
     .UNSPECIFIED.);
#225=AXIS2_PLACEMENT_3D('',#333,#259,#260);
#226=AXIS2_PLACEMENT_3D('',#352,#261,#262);
#227=AXIS2_PLACEMENT_3D('',#353,#263,#264);
#228=AXIS2_PLACEMENT_3D('',#354,#265,#266);
#229=AXIS2_PLACEMENT_3D('',#356,#267,#268);
#230=AXIS2_PLACEMENT_3D('',#358,#269,#270);
#231=AXIS2_PLACEMENT_3D('',#359,#271,#272);
#232=AXIS2_PLACEMENT_3D('',#360,#273,#274);
#233=AXIS2_PLACEMENT_3D('',#364,#276,#277);
#234=AXIS2_PLACEMENT_3D('',#368,#279,#280);
#235=AXIS2_PLACEMENT_3D('',#369,#281,#282);
#236=AXIS2_PLACEMENT_3D('',#370,#283,#284);
#237=AXIS2_PLACEMENT_3D('',#372,#285,#286);
#238=AXIS2_PLACEMENT_3D('',#375,#288,#289);
#239=AXIS2_PLACEMENT_3D('',#376,#290,#291);
#240=AXIS2_PLACEMENT_3D('',#380,#293,#294);
#241=AXIS2_PLACEMENT_3D('',#381,#295,#296);
#242=AXIS2_PLACEMENT_3D('',#382,#297,#298);
#243=AXIS2_PLACEMENT_3D('',#386,#300,#301);
#244=AXIS2_PLACEMENT_3D('',#387,#302,#303);
#245=AXIS2_PLACEMENT_3D('',#388,#304,#305);
#246=AXIS2_PLACEMENT_3D('',#392,#307,#308);
#247=AXIS2_PLACEMENT_3D('',#393,#309,#310);
#248=AXIS2_PLACEMENT_3D('',#394,#311,#312);
#249=AXIS2_PLACEMENT_3D('',#395,#313,#314);
#250=AXIS2_PLACEMENT_3D('',#396,#315,#316);
#251=AXIS2_PLACEMENT_3D('',#397,#317,#318);
#252=AXIS2_PLACEMENT_3D('',#398,#319,#320);
#253=AXIS2_PLACEMENT_3D('',#400,#321,#322);
#254=AXIS2_PLACEMENT_3D('',#402,#323,#324);
#255=AXIS2_PLACEMENT_3D('',#403,#325,#326);
#256=AXIS2_PLACEMENT_3D('',#405,#327,#328);
#257=AXIS2_PLACEMENT_3D('',#406,#329,#330);
#258=AXIS2_PLACEMENT_3D('',#407,#331,#332);
#259=DIRECTION('',(0.0,0.0,1.0));
#260=DIRECTION('',(1.0,0.0,0.0));
#261=DIRECTION('',(0.0,0.0,-1.0));
#262=DIRECTION('',(-1.61726194475907E-13,1.0,0.0));
#263=DIRECTION('',(0.0,0.0,1.0));
#264=DIRECTION('',(0.0,1.0,-6.05941333924034E-17));
#265=DIRECTION('',(-0.0732505293981271,0.997052233161759,-0.0228298990370784));
#266=DIRECTION('',(0.996878841868759,0.0738752372038326,0.0278392521896502));
#267=DIRECTION('',(0.0,-6.12303176911189E-17,-1.0));
#268=DIRECTION('',(-1.61726194475907E-13,1.0,0.0));
#269=DIRECTION('',(0.0732505293384454,0.997052233166181,-0.0228298990354594));
#270=DIRECTION('',(-0.996924503956327,0.0738421201572323,0.0262464226536937));
#271=DIRECTION('',(0.0,0.0,-1.0));
#272=DIRECTION('',(0.0,-1.0,0.0));
#273=DIRECTION('',(0.0,-6.12303176911189E-17,-1.0));
#274=DIRECTION('',(0.0,-1.0,0.0));
#275=DIRECTION('',(0.0137754746237107,0.0210007227156388,0.99968455321882));
#276=DIRECTION('',(0.0,0.0,1.0));
#277=DIRECTION('',(1.0,0.0,0.0));
#278=DIRECTION('',(-0.0137754810594535,0.0210007184940963,0.99968455321882));
#279=DIRECTION('',(0.0,-6.12303176911189E-17,-1.0));
#280=DIRECTION('',(0.0,-1.0,0.0));
#281=DIRECTION('',(0.0,0.0,-1.0));
#282=DIRECTION('',(0.0,-1.0,-1.32946274324873E-15));
#283=DIRECTION('',(0.0,-6.12303176911189E-17,-1.0));
#284=DIRECTION('',(0.866025250557684,-0.500000265396431,0.0));
#285=DIRECTION('',(0.0,0.0,1.0));
#286=DIRECTION('',(1.0,0.0,0.0));
#287=DIRECTION('',(-0.0250748958052459,0.00142956498407764,0.99968455321882));
#288=DIRECTION('',(0.0,0.0,-1.0));
#289=DIRECTION('',(0.0,-1.0,-1.71390336281022E-15));
#290=DIRECTION('',(0.0,-6.12303176911189E-17,-1.0));
#291=DIRECTION('',(-0.866025250557684,-0.500000265396431,0.0));
#292=DIRECTION('',(0.025074896142823,0.00142955906288819,0.99968455321882));
#293=DIRECTION('',(0.0,0.0,1.0));
#294=DIRECTION('',(1.0,0.0,0.0));
#295=DIRECTION('',(0.0,0.0,-1.0));
#296=DIRECTION('',(0.0,-1.0,-1.71390336281022E-15));
#297=DIRECTION('',(0.0,-6.12303176911189E-17,-1.0));
#298=DIRECTION('',(-0.866025438941074,0.499999939106917,0.0));
#299=DIRECTION('',(0.011299415183886,-0.0224302757938864,0.99968455321882));
#300=DIRECTION('',(0.0,0.0,1.0));
#301=DIRECTION('',(1.0,0.0,0.0));
#302=DIRECTION('',(0.0,0.0,-1.0));
#303=DIRECTION('',(0.0,-1.0,-1.32946268271937E-15));
#304=DIRECTION('',(0.0,-6.12303176911189E-17,-1.0));
#305=DIRECTION('',(0.0,1.0,0.0));
#306=DIRECTION('',(-0.0112994167610325,-0.0224302749993875,0.99968455321882));
#307=DIRECTION('',(0.0,0.0,1.0));
#308=DIRECTION('',(1.0,0.0,0.0));
#309=DIRECTION('',(0.0,0.0,-1.0));
#310=DIRECTION('',(0.0,-1.0,-1.71390318743268E-15));
#311=DIRECTION('',(0.0,-6.12303176911189E-17,-1.0));
#312=DIRECTION('',(0.866025438941074,0.499999939106917,0.0));
#313=DIRECTION('',(0.0,0.0,1.0));
#314=DIRECTION('',(1.0,0.0,0.0));
#315=DIRECTION('',(0.0,0.0,-1.0));
#316=DIRECTION('',(0.0,-1.0,-1.32946268271937E-15));
#317=DIRECTION('',(0.0,6.12303176911189E-17,1.0));
#318=DIRECTION('',(0.0,1.0,-6.24500451351651E-17));
#319=DIRECTION('',(0.0,0.0,-1.0));
#320=DIRECTION('',(-1.0,0.0,0.0));
#321=DIRECTION('',(0.0,0.0,-1.0));
#322=DIRECTION('',(-1.0,0.0,0.0));
#323=DIRECTION('',(0.0,0.0,-1.0));
#324=DIRECTION('',(-1.0,0.0,0.0));
#325=DIRECTION('',(0.0,0.0,-1.0));
#326=DIRECTION('',(-1.0,0.0,0.0));
#327=DIRECTION('',(0.0,0.0,1.0));
#328=DIRECTION('',(1.0,0.0,-1.34255584698816E-16));
#329=DIRECTION('',(0.0,0.0,1.0));
#330=DIRECTION('',(1.0,0.0,0.0));
#331=DIRECTION('',(0.0,0.0,-1.0));
#332=DIRECTION('',(-1.0,0.0,0.0));
#333=CARTESIAN_POINT('',(0.0,0.0,0.0));
#334=CARTESIAN_POINT('',(-2.39618604874524,-9.79714323120858,15.6499998826993));
#335=CARTESIAN_POINT('',(-2.00331713081758,-9.86966132085557,15.3565868511301));
#336=CARTESIAN_POINT('',(-1.58609304299647,-9.92963474847536,15.0813482286711));
#337=CARTESIAN_POINT('',(-1.13267421436881,-9.96964756638343,14.8851177332242));
#338=CARTESIAN_POINT('',(-0.855149936338882,-9.99413823086574,14.7650108405723));
#339=CARTESIAN_POINT('',(-0.558022422546713,-10.0111457336003,14.6756611763462));
#340=CARTESIAN_POINT('',(-0.256372853433768,-10.0172101340229,14.6437873044947));
#341=CARTESIAN_POINT('',(0.0477133605717466,-10.0233235210571,14.6116559639942));
#342=CARTESIAN_POINT('',(0.362692684039951,-10.0180309861578,14.6403791479113));
#343=CARTESIAN_POINT('',(0.657983814037701,-10.002828132986,14.7185471969575));
#344=CARTESIAN_POINT('',(1.05245687815543,-9.9825189686909,14.8229702110304));
#345=CARTESIAN_POINT('',(1.4248670799825,-9.94513730132958,15.0094394215042));
#346=CARTESIAN_POINT('',(1.77057995637259,-9.89775630766004,15.2219559499763));
#347=CARTESIAN_POINT('',(1.98625942966532,-9.86819678455104,15.3545383790877));
#348=CARTESIAN_POINT('',(2.19416045075317,-9.83443358786154,15.4991182567267));
#349=CARTESIAN_POINT('',(2.3961846453786,-9.79714277634108,15.6499994062366));
#350=CARTESIAN_POINT('',(-2.39618604874524,-9.79714323120858,15.6499998826993));
#351=CARTESIAN_POINT('',(2.3961846453786,-9.79714277634108,15.6499994062366));
#352=CARTESIAN_POINT('',(0.0,-13.0,15.65));
#353=CARTESIAN_POINT('',(0.0,-13.0,13.65));
#354=CARTESIAN_POINT('',(-2094.31096897581,-165.100078733755,-39.5508321189835));
#355=CARTESIAN_POINT('',(2.30015102129197,-9.72749250890858,19.0));
#356=CARTESIAN_POINT('',(0.0,-13.0,19.0));
#357=CARTESIAN_POINT('',(-2.30015102129197,-9.72749250890858,19.0));
#358=CARTESIAN_POINT('',(2094.31096904575,-165.100078612714,-39.550832123505));
#359=CARTESIAN_POINT('',(0.0,-13.0,19.0));
#360=CARTESIAN_POINT('',(0.0,4.67545595795221,19.0));
#361=CARTESIAN_POINT('',(-7.9998729465036,-7.52034873462951,19.0));
#362=CARTESIAN_POINT('',(-8.22724,-7.86697,2.5));
#363=CARTESIAN_POINT('',(-8.26169214283496,-7.91948667509894,0.0));
#364=CARTESIAN_POINT('',(0.0,4.67545595795221,0.0));
#365=CARTESIAN_POINT('',(8.26169214283496,-7.91948667509894,0.0));
#366=CARTESIAN_POINT('',(8.22724,-7.86697,2.5));
#367=CARTESIAN_POINT('',(7.99987284028034,-7.52034880430694,19.0));
#368=CARTESIAN_POINT('',(0.0,4.67545595795221,19.0));
#369=CARTESIAN_POINT('',(0.0,4.67545595795221,2.5));
#370=CARTESIAN_POINT('',(4.9363421661785,-2.84999346877931,19.0));
#371=CARTESIAN_POINT('',(10.5127536664107,-3.16791473471223,19.0));
#372=CARTESIAN_POINT('',(4.9363421661785,-2.84999346877931,0.0));
#373=CARTESIAN_POINT('',(10.9893271560567,-3.19508265793908,0.0));
#374=CARTESIAN_POINT('',(10.92662,-3.19151,2.5));
#375=CARTESIAN_POINT('',(4.9363421661785,-2.84999346877931,2.5));
#376=CARTESIAN_POINT('',(-4.9363421661785,-2.84999346877931,19.0));
#377=CARTESIAN_POINT('',(-10.5127536608389,-3.16791483244269,19.0));
#378=CARTESIAN_POINT('',(-10.92662,-3.19151,2.5));
#379=CARTESIAN_POINT('',(-10.9893271560569,-3.19508265793909,0.0));
#380=CARTESIAN_POINT('',(-4.9363421661785,-2.84999346877931,0.0));
#381=CARTESIAN_POINT('',(-4.9363421661785,-2.84999346877931,2.5));
#382=CARTESIAN_POINT('',(4.04906126847029,-2.33772297897611,19.0));
#383=CARTESIAN_POINT('',(-2.51288081889951,10.6882736658499,19.0));
#384=CARTESIAN_POINT('',(-2.69938,11.05849,2.5));
#385=CARTESIAN_POINT('',(-2.72763808621141,11.1145830643132,0.0));
#386=CARTESIAN_POINT('',(4.04906126847029,-2.33772297897611,0.0));
#387=CARTESIAN_POINT('',(4.04906126847029,-2.33772297897611,2.5));
#388=CARTESIAN_POINT('',(0.0,5.69999693755836,19.0));
#389=CARTESIAN_POINT('',(2.51288079286838,10.6882736789633,19.0));
#390=CARTESIAN_POINT('',(2.69938,11.05849,2.5));
#391=CARTESIAN_POINT('',(2.72763808621137,11.1145830643131,0.0));
#392=CARTESIAN_POINT('',(0.0,5.69999693755837,0.0));
#393=CARTESIAN_POINT('',(0.0,5.69999693755837,2.5));
#394=CARTESIAN_POINT('',(-4.04906126847029,-2.33772297897611,19.0));
#395=CARTESIAN_POINT('',(-4.04906126847029,-2.33772297897611,0.0));
#396=CARTESIAN_POINT('',(-4.04906126847029,-2.33772297897611,2.5));
#397=CARTESIAN_POINT('',(0.0,4.11258836697792E-6,19.0));
#398=CARTESIAN_POINT('',(0.0,0.0,-15.0));
#399=CARTESIAN_POINT('',(-16.0,0.0,-15.0));
#400=CARTESIAN_POINT('',(0.0,0.0,0.0));
#401=CARTESIAN_POINT('',(-16.0,0.0,0.0));
#402=CARTESIAN_POINT('',(0.0,0.0,0.0));
#403=CARTESIAN_POINT('',(0.0,0.0,-110.0));
#404=CARTESIAN_POINT('',(-7.7,0.0,-110.0));
#405=CARTESIAN_POINT('',(0.0,0.0,-15.0));
#406=CARTESIAN_POINT('',(0.0,-7.7,-110.0));
#407=CARTESIAN_POINT('',(0.0,0.0,0.0));
#408=MECHANICAL_DESIGN_GEOMETRIC_PRESENTATION_REPRESENTATION('',(#24),#409);
#409=(GEOMETRIC_REPRESENTATION_CONTEXT(3)GLOBAL_UNCERTAINTY_ASSIGNED_CONTEXT((#410))
     GLOBAL_UNIT_ASSIGNED_CONTEXT((#416,#412,#411))REPRESENTATION_CONTEXT('C3-391',
     'TOP_LEVEL_ASSEMBLY_PART'));
#410=UNCERTAINTY_MEASURE_WITH_UNIT(LENGTH_MEASURE(0.0508),#416,'DISTANCE_ACCURACY_VALUE',
     'Maximum Tolerance applied to model');
#411=(NAMED_UNIT(*)SI_UNIT($,.STERADIAN.)SOLID_ANGLE_UNIT());
#412=(CONVERSION_BASED_UNIT('DEGREE',#414)NAMED_UNIT(*)PLANE_ANGLE_UNIT());
#413=DIMENSIONAL_EXPONENTS(0.0,0.0,0.0,0.0,0.0,0.0,0.0);
#414=PLANE_ANGLE_MEASURE_WITH_UNIT(PLANE_ANGLE_MEASURE(0.0174532925),#415);
#415=(NAMED_UNIT(*)PLANE_ANGLE_UNIT()SI_UNIT($,.RADIAN.));
#416=(LENGTH_UNIT()NAMED_UNIT(*)SI_UNIT(.MILLI.,.METRE.));
#417=CARTESIAN_POINT('',(0.0,0.0,0.0));
#418=DIRECTION('',(0.0,0.0,1.0));
#419=DIRECTION('',(1.0,0.0,0.0));
#420=AXIS2_PLACEMENT_3D('PCS',#417,#418,#419);
#421=CARTESIAN_POINT('',(0.0,0.0,0.0));
#422=DIRECTION('',(0.0,0.0,1.0));
#423=DIRECTION('',(1.0,0.0,0.0));
#424=AXIS2_PLACEMENT_3D('MCS',#421,#422,#423);
#425=CARTESIAN_POINT('',(0.0,0.0,-110.0));
#426=DIRECTION('',(0.0,0.0,1.0));
#427=DIRECTION('',(1.0,0.0,0.0));
#428=AXIS2_PLACEMENT_3D('CSW',#425,#426,#427);
#429=CONSTRUCTIVE_GEOMETRY_REPRESENTATION('supplemental geometry',(#420,#424,#428),
     #409);
#430=CONSTRUCTIVE_GEOMETRY_REPRESENTATION_RELATIONSHIP('supplemental geometry',$,
     #22,#429);
ENDSEC;
END-ISO-10303-21;
