ISO-10303-21;
HEADER;
FILE_DESCRIPTION(
/* description */ ('3-D model version:1'),
/* implementation_level */ '2;1');
FILE_NAME(
/* name */ 'C3-391.EH-12054',
/* time_stamp */ '2016-12-02T13:57:32',
/* author */ ('InteractiveCad'),
/* organization */ ('AB Sandvik Coromant'),
/* preprocessor_version */ 'ST-DEVELOPER v11',
/* originating_system */ 'SIEMENS UGS NX 6.0',
/* authorization */ '');
FILE_SCHEMA(('AUTOMOTIVE_DESIGN'));
ENDSEC;
DATA;
#10=SHAPE_REPRESENTATION_RELATIONSHIP('None','relationship between ds68DC2Drqcu-None and ds68DC2Drqcu-None',
     #22,#11);
#11=ADVANCED_BREP_SHAPE_REPRESENTATION('ds68DC2Drqcu-None',(#32),#469);
#12=SHAPE_DEFINITION_REPRESENTATION(#13,#22);
#13=PRODUCT_DEFINITION_SHAPE('','',#14);
#14=PRODUCT_DEFINITION(' ','',#16,#15);
#15=PRODUCT_DEFINITION_CONTEXT('part definition',#21,'design');
#16=PRODUCT_DEFINITION_FORMATION_WITH_SPECIFIED_SOURCE(' ',' ',#18,.NOT_KNOWN.);
#17=PRODUCT_RELATED_PRODUCT_CATEGORY('part','',(#18));
#18=PRODUCT('ds68DC2Drqcu','ds68DC2Drqcu',' ',(#19));
#19=PRODUCT_CONTEXT(' ',#21,'mechanical');
#20=APPLICATION_PROTOCOL_DEFINITION('international standard','automotive_design',
     2001,#21);
#21=APPLICATION_CONTEXT('core data for automotive mechanical design processes');
#22=SHAPE_REPRESENTATION('ds68DC2Drqcu-None',(#258),#469);
#23=PRESENTATION_LAYER_ASSIGNMENT('1','Layer 1',(#32));
#24=STYLED_ITEM('',(#25),#32);
#25=PRESENTATION_STYLE_ASSIGNMENT((#26));
#26=SURFACE_STYLE_USAGE(.BOTH.,#27);
#27=SURFACE_SIDE_STYLE('',(#28));
#28=SURFACE_STYLE_FILL_AREA(#29);
#29=FILL_AREA_STYLE('',(#30));
#30=FILL_AREA_STYLE_COLOUR('',#31);
#31=COLOUR_RGB('Medium Gray',0.490196078431373,0.490196078431373,0.490196078431373);
#32=MANIFOLD_SOLID_BREP('NOCUT',#33);
#33=CLOSED_SHELL('',(#70,#71,#72,#73,#74,#75,#76,#77,#78,#79,#80,#81,#82,#83,#84,
     #85));
#34=LINE('',#444,#40);
#35=LINE('',#445,#41);
#36=LINE('',#451,#42);
#37=LINE('',#455,#43);
#38=LINE('',#459,#44);
#39=LINE('',#463,#45);
#40=VECTOR('',#352,1.0);
#41=VECTOR('',#353,1.0);
#42=VECTOR('',#360,1.0);
#43=VECTOR('',#365,1.0);
#44=VECTOR('',#370,1.0);
#45=VECTOR('',#375,1.0);
#46=B_SPLINE_CURVE_WITH_KNOTS('',3,(#416,#417,#418,#419,#420,#421,#422,#423,#424,
     #425,#426,#427,#428,#429,#430,#431),.UNSPECIFIED.,.F.,.F.,(4,3,3,3,3,4),(0.0,
     0.2800596981137,0.451536062893216,0.625138107805911,0.856610091405707,1.0),
     .UNSPECIFIED.);
#47=FACE_OUTER_BOUND('',#113,.T.);
#48=FACE_OUTER_BOUND('',#114,.T.);
#49=FACE_OUTER_BOUND('',#115,.T.);
#50=FACE_OUTER_BOUND('',#116,.T.);
#51=FACE_OUTER_BOUND('',#117,.T.);
#52=FACE_OUTER_BOUND('',#118,.T.);
#53=FACE_OUTER_BOUND('',#119,.T.);
#54=FACE_OUTER_BOUND('',#120,.T.);
#55=FACE_OUTER_BOUND('',#121,.T.);
#56=FACE_OUTER_BOUND('',#122,.T.);
#57=TOROIDAL_SURFACE('',#272,13.8312938753809,5.0);
#58=CONICAL_SURFACE('',#270,16.0,74.9963208064189);
#59=CONICAL_SURFACE('',#274,8.87985244443962,7.99167243056882);
#60=CONICAL_SURFACE('',#279,2.0,45.0);
#61=CONICAL_SURFACE('',#286,14.9999975642769,1.43916999999995);
#62=CONICAL_SURFACE('',#288,6.00000517228696,1.43916999999995);
#63=CONICAL_SURFACE('',#290,6.00000517228696,1.43916999999995);
#64=CONICAL_SURFACE('',#292,14.9999993910693,1.43916999999995);
#65=CONICAL_SURFACE('',#294,6.00000835704711,1.43916999999995);
#66=CONICAL_SURFACE('',#296,14.9999993910693,1.43916999999995);
#67=CYLINDRICAL_SURFACE('',#268,16.0);
#68=CYLINDRICAL_SURFACE('',#276,5.8);
#69=CYLINDRICAL_SURFACE('',#283,4.0);
#70=ADVANCED_FACE('',(#89,#90),#86,.F.);
#71=ADVANCED_FACE('',(#91,#92),#67,.T.);
#72=ADVANCED_FACE('',(#93,#94),#58,.T.);
#73=ADVANCED_FACE('',(#95,#96),#57,.F.);
#74=ADVANCED_FACE('',(#97,#98),#59,.T.);
#75=ADVANCED_FACE('',(#99,#100),#68,.T.);
#76=ADVANCED_FACE('',(#47),#87,.F.);
#77=ADVANCED_FACE('',(#48),#60,.F.);
#78=ADVANCED_FACE('',(#49),#69,.F.);
#79=ADVANCED_FACE('',(#50),#61,.T.);
#80=ADVANCED_FACE('',(#51),#62,.T.);
#81=ADVANCED_FACE('',(#52),#63,.T.);
#82=ADVANCED_FACE('',(#53),#64,.T.);
#83=ADVANCED_FACE('',(#54),#65,.T.);
#84=ADVANCED_FACE('',(#55),#66,.T.);
#85=ADVANCED_FACE('',(#56),#88,.T.);
#86=PLANE('',#266);
#87=PLANE('',#277);
#88=PLANE('',#297);
#89=FACE_BOUND('',#101,.T.);
#90=FACE_BOUND('',#102,.T.);
#91=FACE_BOUND('',#103,.T.);
#92=FACE_BOUND('',#104,.T.);
#93=FACE_BOUND('',#105,.T.);
#94=FACE_BOUND('',#106,.T.);
#95=FACE_BOUND('',#107,.T.);
#96=FACE_BOUND('',#108,.T.);
#97=FACE_BOUND('',#109,.T.);
#98=FACE_BOUND('',#110,.T.);
#99=FACE_BOUND('',#111,.T.);
#100=FACE_BOUND('',#112,.T.);
#101=EDGE_LOOP('',(#123));
#102=EDGE_LOOP('',(#124,#125,#126,#127,#128,#129));
#103=EDGE_LOOP('',(#130));
#104=EDGE_LOOP('',(#131));
#105=EDGE_LOOP('',(#132));
#106=EDGE_LOOP('',(#133));
#107=EDGE_LOOP('',(#134));
#108=EDGE_LOOP('',(#135));
#109=EDGE_LOOP('',(#136));
#110=EDGE_LOOP('',(#137));
#111=EDGE_LOOP('',(#138));
#112=EDGE_LOOP('',(#139));
#113=EDGE_LOOP('',(#140));
#114=EDGE_LOOP('',(#141,#142));
#115=EDGE_LOOP('',(#143,#144,#145,#146));
#116=EDGE_LOOP('',(#147,#148,#149,#150,#151,#152,#153,#154));
#117=EDGE_LOOP('',(#155,#156,#157,#158));
#118=EDGE_LOOP('',(#159,#160,#161,#162));
#119=EDGE_LOOP('',(#163,#164,#165,#166));
#120=EDGE_LOOP('',(#167,#168,#169,#170));
#121=EDGE_LOOP('',(#171,#172,#173,#174));
#122=EDGE_LOOP('',(#175,#176,#177,#178,#179,#180,#181,#182));
#123=ORIENTED_EDGE('',*,*,#205,.F.);
#124=ORIENTED_EDGE('',*,*,#206,.F.);
#125=ORIENTED_EDGE('',*,*,#207,.F.);
#126=ORIENTED_EDGE('',*,*,#208,.F.);
#127=ORIENTED_EDGE('',*,*,#209,.F.);
#128=ORIENTED_EDGE('',*,*,#210,.F.);
#129=ORIENTED_EDGE('',*,*,#211,.F.);
#130=ORIENTED_EDGE('',*,*,#212,.F.);
#131=ORIENTED_EDGE('',*,*,#205,.T.);
#132=ORIENTED_EDGE('',*,*,#213,.F.);
#133=ORIENTED_EDGE('',*,*,#212,.T.);
#134=ORIENTED_EDGE('',*,*,#214,.F.);
#135=ORIENTED_EDGE('',*,*,#213,.T.);
#136=ORIENTED_EDGE('',*,*,#215,.F.);
#137=ORIENTED_EDGE('',*,*,#214,.T.);
#138=ORIENTED_EDGE('',*,*,#216,.F.);
#139=ORIENTED_EDGE('',*,*,#215,.T.);
#140=ORIENTED_EDGE('',*,*,#216,.T.);
#141=ORIENTED_EDGE('',*,*,#217,.T.);
#142=ORIENTED_EDGE('',*,*,#218,.F.);
#143=ORIENTED_EDGE('',*,*,#219,.F.);
#144=ORIENTED_EDGE('',*,*,#220,.F.);
#145=ORIENTED_EDGE('',*,*,#221,.F.);
#146=ORIENTED_EDGE('',*,*,#218,.T.);
#147=ORIENTED_EDGE('',*,*,#219,.T.);
#148=ORIENTED_EDGE('',*,*,#217,.F.);
#149=ORIENTED_EDGE('',*,*,#221,.T.);
#150=ORIENTED_EDGE('',*,*,#222,.T.);
#151=ORIENTED_EDGE('',*,*,#223,.F.);
#152=ORIENTED_EDGE('',*,*,#209,.T.);
#153=ORIENTED_EDGE('',*,*,#224,.T.);
#154=ORIENTED_EDGE('',*,*,#225,.T.);
#155=ORIENTED_EDGE('',*,*,#226,.T.);
#156=ORIENTED_EDGE('',*,*,#224,.F.);
#157=ORIENTED_EDGE('',*,*,#208,.T.);
#158=ORIENTED_EDGE('',*,*,#227,.T.);
#159=ORIENTED_EDGE('',*,*,#228,.T.);
#160=ORIENTED_EDGE('',*,*,#229,.F.);
#161=ORIENTED_EDGE('',*,*,#210,.T.);
#162=ORIENTED_EDGE('',*,*,#223,.T.);
#163=ORIENTED_EDGE('',*,*,#230,.T.);
#164=ORIENTED_EDGE('',*,*,#231,.F.);
#165=ORIENTED_EDGE('',*,*,#211,.T.);
#166=ORIENTED_EDGE('',*,*,#229,.T.);
#167=ORIENTED_EDGE('',*,*,#232,.T.);
#168=ORIENTED_EDGE('',*,*,#233,.F.);
#169=ORIENTED_EDGE('',*,*,#206,.T.);
#170=ORIENTED_EDGE('',*,*,#231,.T.);
#171=ORIENTED_EDGE('',*,*,#234,.T.);
#172=ORIENTED_EDGE('',*,*,#227,.F.);
#173=ORIENTED_EDGE('',*,*,#207,.T.);
#174=ORIENTED_EDGE('',*,*,#233,.T.);
#175=ORIENTED_EDGE('',*,*,#220,.T.);
#176=ORIENTED_EDGE('',*,*,#225,.F.);
#177=ORIENTED_EDGE('',*,*,#226,.F.);
#178=ORIENTED_EDGE('',*,*,#234,.F.);
#179=ORIENTED_EDGE('',*,*,#232,.F.);
#180=ORIENTED_EDGE('',*,*,#230,.F.);
#181=ORIENTED_EDGE('',*,*,#228,.F.);
#182=ORIENTED_EDGE('',*,*,#222,.F.);
#183=VERTEX_POINT('',#386);
#184=VERTEX_POINT('',#388);
#185=VERTEX_POINT('',#389);
#186=VERTEX_POINT('',#391);
#187=VERTEX_POINT('',#393);
#188=VERTEX_POINT('',#395);
#189=VERTEX_POINT('',#397);
#190=VERTEX_POINT('',#401);
#191=VERTEX_POINT('',#404);
#192=VERTEX_POINT('',#407);
#193=VERTEX_POINT('',#410);
#194=VERTEX_POINT('',#413);
#195=VERTEX_POINT('',#432);
#196=VERTEX_POINT('',#433);
#197=VERTEX_POINT('',#437);
#198=VERTEX_POINT('',#439);
#199=VERTEX_POINT('',#443);
#200=VERTEX_POINT('',#446);
#201=VERTEX_POINT('',#450);
#202=VERTEX_POINT('',#454);
#203=VERTEX_POINT('',#458);
#204=VERTEX_POINT('',#462);
#205=EDGE_CURVE('',#183,#183,#235,.T.);
#206=EDGE_CURVE('',#184,#185,#236,.T.);
#207=EDGE_CURVE('',#186,#184,#237,.T.);
#208=EDGE_CURVE('',#187,#186,#238,.T.);
#209=EDGE_CURVE('',#188,#187,#239,.T.);
#210=EDGE_CURVE('',#189,#188,#240,.T.);
#211=EDGE_CURVE('',#185,#189,#241,.T.);
#212=EDGE_CURVE('',#190,#190,#242,.T.);
#213=EDGE_CURVE('',#191,#191,#243,.T.);
#214=EDGE_CURVE('',#192,#192,#244,.T.);
#215=EDGE_CURVE('',#193,#193,#245,.T.);
#216=EDGE_CURVE('',#194,#194,#246,.T.);
#217=EDGE_CURVE('',#195,#196,#46,.T.);
#218=EDGE_CURVE('',#195,#196,#247,.T.);
#219=EDGE_CURVE('',#197,#196,#248,.T.);
#220=EDGE_CURVE('',#198,#197,#249,.T.);
#221=EDGE_CURVE('',#195,#198,#250,.T.);
#222=EDGE_CURVE('',#198,#199,#251,.T.);
#223=EDGE_CURVE('',#188,#199,#34,.T.);
#224=EDGE_CURVE('',#187,#200,#35,.T.);
#225=EDGE_CURVE('',#200,#197,#252,.T.);
#226=EDGE_CURVE('',#201,#200,#253,.T.);
#227=EDGE_CURVE('',#186,#201,#36,.T.);
#228=EDGE_CURVE('',#199,#202,#254,.T.);
#229=EDGE_CURVE('',#189,#202,#37,.T.);
#230=EDGE_CURVE('',#202,#203,#255,.T.);
#231=EDGE_CURVE('',#185,#203,#38,.T.);
#232=EDGE_CURVE('',#203,#204,#256,.T.);
#233=EDGE_CURVE('',#184,#204,#39,.T.);
#234=EDGE_CURVE('',#204,#201,#257,.T.);
#235=CIRCLE('',#259,16.0);
#236=CIRCLE('',#260,6.06281720435286);
#237=CIRCLE('',#261,15.0628082383751);
#238=CIRCLE('',#262,6.06281401959271);
#239=CIRCLE('',#263,15.0628064115827);
#240=CIRCLE('',#264,6.06281401959271);
#241=CIRCLE('',#265,15.0628082383751);
#242=CIRCLE('',#267,16.0);
#243=CIRCLE('',#269,12.5368885225297);
#244=CIRCLE('',#271,8.87985244443962);
#245=CIRCLE('',#273,5.8);
#246=CIRCLE('',#275,5.8);
#247=CIRCLE('',#278,4.0);
#248=CIRCLE('',#280,2103.17546319548);
#249=CIRCLE('',#281,4.0);
#250=CIRCLE('',#282,2103.17546325638);
#251=CIRCLE('',#284,14.5854591720589);
#252=CIRCLE('',#285,14.5854591720589);
#253=CIRCLE('',#287,5.58546678006898);
#254=CIRCLE('',#289,5.58546678006898);
#255=CIRCLE('',#291,14.5854609988514);
#256=CIRCLE('',#293,5.58546996482912);
#257=CIRCLE('',#295,14.5854609988514);
#258=AXIS2_PLACEMENT_3D('',#384,#298,#299);
#259=AXIS2_PLACEMENT_3D('',#385,#300,#301);
#260=AXIS2_PLACEMENT_3D('',#387,#302,#303);
#261=AXIS2_PLACEMENT_3D('',#390,#304,#305);
#262=AXIS2_PLACEMENT_3D('',#392,#306,#307);
#263=AXIS2_PLACEMENT_3D('',#394,#308,#309);
#264=AXIS2_PLACEMENT_3D('',#396,#310,#311);
#265=AXIS2_PLACEMENT_3D('',#398,#312,#313);
#266=AXIS2_PLACEMENT_3D('',#399,#314,#315);
#267=AXIS2_PLACEMENT_3D('',#400,#316,#317);
#268=AXIS2_PLACEMENT_3D('',#402,#318,#319);
#269=AXIS2_PLACEMENT_3D('',#403,#320,#321);
#270=AXIS2_PLACEMENT_3D('',#405,#322,#323);
#271=AXIS2_PLACEMENT_3D('',#406,#324,#325);
#272=AXIS2_PLACEMENT_3D('',#408,#326,#327);
#273=AXIS2_PLACEMENT_3D('',#409,#328,#329);
#274=AXIS2_PLACEMENT_3D('',#411,#330,#331);
#275=AXIS2_PLACEMENT_3D('',#412,#332,#333);
#276=AXIS2_PLACEMENT_3D('',#414,#334,#335);
#277=AXIS2_PLACEMENT_3D('',#415,#336,#337);
#278=AXIS2_PLACEMENT_3D('',#434,#338,#339);
#279=AXIS2_PLACEMENT_3D('',#435,#340,#341);
#280=AXIS2_PLACEMENT_3D('',#436,#342,#343);
#281=AXIS2_PLACEMENT_3D('',#438,#344,#345);
#282=AXIS2_PLACEMENT_3D('',#440,#346,#347);
#283=AXIS2_PLACEMENT_3D('',#441,#348,#349);
#284=AXIS2_PLACEMENT_3D('',#442,#350,#351);
#285=AXIS2_PLACEMENT_3D('',#447,#354,#355);
#286=AXIS2_PLACEMENT_3D('',#448,#356,#357);
#287=AXIS2_PLACEMENT_3D('',#449,#358,#359);
#288=AXIS2_PLACEMENT_3D('',#452,#361,#362);
#289=AXIS2_PLACEMENT_3D('',#453,#363,#364);
#290=AXIS2_PLACEMENT_3D('',#456,#366,#367);
#291=AXIS2_PLACEMENT_3D('',#457,#368,#369);
#292=AXIS2_PLACEMENT_3D('',#460,#371,#372);
#293=AXIS2_PLACEMENT_3D('',#461,#373,#374);
#294=AXIS2_PLACEMENT_3D('',#464,#376,#377);
#295=AXIS2_PLACEMENT_3D('',#465,#378,#379);
#296=AXIS2_PLACEMENT_3D('',#466,#380,#381);
#297=AXIS2_PLACEMENT_3D('',#467,#382,#383);
#298=DIRECTION('',(0.0,0.0,1.0));
#299=DIRECTION('',(1.0,0.0,0.0));
#300=DIRECTION('',(0.0,0.0,-1.0));
#301=DIRECTION('',(-1.0,0.0,0.0));
#302=DIRECTION('',(0.0,0.0,1.0));
#303=DIRECTION('',(1.0,0.0,0.0));
#304=DIRECTION('',(0.0,0.0,1.0));
#305=DIRECTION('',(1.0,0.0,0.0));
#306=DIRECTION('',(0.0,0.0,1.0));
#307=DIRECTION('',(1.0,0.0,0.0));
#308=DIRECTION('',(0.0,0.0,1.0));
#309=DIRECTION('',(1.0,0.0,0.0));
#310=DIRECTION('',(0.0,0.0,1.0));
#311=DIRECTION('',(1.0,0.0,0.0));
#312=DIRECTION('',(0.0,0.0,1.0));
#313=DIRECTION('',(1.0,0.0,0.0));
#314=DIRECTION('',(0.0,0.0,-1.0));
#315=DIRECTION('',(-1.0,0.0,0.0));
#316=DIRECTION('',(0.0,0.0,-1.0));
#317=DIRECTION('',(-1.0,0.0,0.0));
#318=DIRECTION('',(0.0,0.0,-1.0));
#319=DIRECTION('',(-1.0,0.0,0.0));
#320=DIRECTION('',(0.0,0.0,-1.0));
#321=DIRECTION('',(-1.0,0.0,0.0));
#322=DIRECTION('',(0.0,0.0,1.0));
#323=DIRECTION('',(1.0,0.0,-3.70361501383689E-18));
#324=DIRECTION('',(0.0,0.0,-1.0));
#325=DIRECTION('',(-1.0,0.0,0.0));
#326=DIRECTION('',(0.0,0.0,-1.0));
#327=DIRECTION('',(-1.0,0.0,0.0));
#328=DIRECTION('',(0.0,0.0,-1.0));
#329=DIRECTION('',(-1.0,0.0,0.0));
#330=DIRECTION('',(0.0,0.0,1.0));
#331=DIRECTION('',(1.0,0.0,-1.39454253629827E-16));
#332=DIRECTION('',(0.0,0.0,-1.0));
#333=DIRECTION('',(-1.0,0.0,0.0));
#334=DIRECTION('',(0.0,0.0,-1.0));
#335=DIRECTION('',(-1.0,0.0,0.0));
#336=DIRECTION('',(0.0,0.0,1.0));
#337=DIRECTION('',(1.0,0.0,0.0));
#338=DIRECTION('',(0.0,0.0,-1.0));
#339=DIRECTION('',(-1.61726194475907E-13,1.0,0.0));
#340=DIRECTION('',(0.0,0.0,1.0));
#341=DIRECTION('',(0.0,1.0,-6.05941333924034E-17));
#342=DIRECTION('',(-0.0732505293981271,0.997052233161759,-0.0228298990370784));
#343=DIRECTION('',(0.996878841868759,0.0738752372038326,0.0278392521896502));
#344=DIRECTION('',(0.0,-6.12303176911189E-17,-1.0));
#345=DIRECTION('',(-1.61726194475907E-13,1.0,0.0));
#346=DIRECTION('',(0.0732505293384454,0.997052233166181,-0.0228298990354594));
#347=DIRECTION('',(-0.996924503956327,0.0738421201572323,0.0262464226536937));
#348=DIRECTION('',(0.0,0.0,-1.0));
#349=DIRECTION('',(0.0,-1.0,0.0));
#350=DIRECTION('',(0.0,-6.12303176911189E-17,-1.0));
#351=DIRECTION('',(0.0,-1.0,0.0));
#352=DIRECTION('',(0.0137754746237107,0.0210007227156388,0.99968455321882));
#353=DIRECTION('',(-0.0137754810594535,0.0210007184940963,0.99968455321882));
#354=DIRECTION('',(0.0,-6.12303176911189E-17,-1.0));
#355=DIRECTION('',(0.0,-1.0,0.0));
#356=DIRECTION('',(0.0,0.0,-1.0));
#357=DIRECTION('',(0.0,-1.0,-1.32946274324873E-15));
#358=DIRECTION('',(0.0,-6.12303176911189E-17,-1.0));
#359=DIRECTION('',(0.866025250557684,-0.500000265396431,0.0));
#360=DIRECTION('',(-0.0250748958052459,0.00142956498407764,0.99968455321882));
#361=DIRECTION('',(0.0,0.0,-1.0));
#362=DIRECTION('',(0.0,-1.0,-1.71390336281022E-15));
#363=DIRECTION('',(0.0,-6.12303176911189E-17,-1.0));
#364=DIRECTION('',(-0.866025250557684,-0.500000265396431,0.0));
#365=DIRECTION('',(0.025074896142823,0.00142955906288819,0.99968455321882));
#366=DIRECTION('',(0.0,0.0,-1.0));
#367=DIRECTION('',(0.0,-1.0,-1.71390336281022E-15));
#368=DIRECTION('',(0.0,-6.12303176911189E-17,-1.0));
#369=DIRECTION('',(-0.866025438941074,0.499999939106917,0.0));
#370=DIRECTION('',(0.011299415183886,-0.0224302757938864,0.99968455321882));
#371=DIRECTION('',(0.0,0.0,-1.0));
#372=DIRECTION('',(0.0,-1.0,-1.32946268271937E-15));
#373=DIRECTION('',(0.0,-6.12303176911189E-17,-1.0));
#374=DIRECTION('',(0.0,1.0,0.0));
#375=DIRECTION('',(-0.0112994167610325,-0.0224302749993875,0.99968455321882));
#376=DIRECTION('',(0.0,0.0,-1.0));
#377=DIRECTION('',(0.0,-1.0,-1.71390318743268E-15));
#378=DIRECTION('',(0.0,-6.12303176911189E-17,-1.0));
#379=DIRECTION('',(0.866025438941074,0.499999939106917,0.0));
#380=DIRECTION('',(0.0,0.0,-1.0));
#381=DIRECTION('',(0.0,-1.0,-1.32946268271937E-15));
#382=DIRECTION('',(0.0,6.12303176911189E-17,1.0));
#383=DIRECTION('',(0.0,1.0,-6.24500451351651E-17));
#384=CARTESIAN_POINT('',(0.0,0.0,0.0));
#385=CARTESIAN_POINT('',(0.0,0.0,0.0));
#386=CARTESIAN_POINT('',(-16.0,0.0,0.0));
#387=CARTESIAN_POINT('',(0.0,5.69999693755837,0.0));
#388=CARTESIAN_POINT('',(2.72763808621137,11.1145830643131,0.0));
#389=CARTESIAN_POINT('',(-2.72763808621141,11.1145830643132,0.0));
#390=CARTESIAN_POINT('',(-4.04906126847029,-2.33772297897611,0.0));
#391=CARTESIAN_POINT('',(10.9893271560567,-3.19508265793908,0.0));
#392=CARTESIAN_POINT('',(4.9363421661785,-2.84999346877931,0.0));
#393=CARTESIAN_POINT('',(8.26169214283496,-7.91948667509894,0.0));
#394=CARTESIAN_POINT('',(0.0,4.67545595795221,0.0));
#395=CARTESIAN_POINT('',(-8.26169214283496,-7.91948667509894,0.0));
#396=CARTESIAN_POINT('',(-4.9363421661785,-2.84999346877931,0.0));
#397=CARTESIAN_POINT('',(-10.9893271560569,-3.19508265793909,0.0));
#398=CARTESIAN_POINT('',(4.04906126847029,-2.33772297897611,0.0));
#399=CARTESIAN_POINT('',(0.0,-10.3873504536305,0.0));
#400=CARTESIAN_POINT('',(0.0,0.0,-15.0));
#401=CARTESIAN_POINT('',(-16.0,0.0,-15.0));
#402=CARTESIAN_POINT('',(0.0,0.0,-1.11022302462516E-13));
#403=CARTESIAN_POINT('',(0.0,0.0,-15.928176274367));
#404=CARTESIAN_POINT('',(-12.5368885225297,0.0,-15.928176274367));
#405=CARTESIAN_POINT('',(0.0,0.0,-15.0));
#406=CARTESIAN_POINT('',(0.0,0.0,-20.0625764444786));
#407=CARTESIAN_POINT('',(-8.87985244443962,0.0,-20.0625764444786));
#408=CARTESIAN_POINT('',(0.0,0.0,-20.7577222967702));
#409=CARTESIAN_POINT('',(0.0,0.0,-42.0));
#410=CARTESIAN_POINT('',(-5.8,0.0,-42.0));
#411=CARTESIAN_POINT('',(0.0,0.0,-20.0625764444786));
#412=CARTESIAN_POINT('',(0.0,0.0,-54.0));
#413=CARTESIAN_POINT('',(-5.8,0.0,-54.0));
#414=CARTESIAN_POINT('',(0.0,0.0,-1.11022302462516E-13));
#415=CARTESIAN_POINT('',(0.0,-5.8,-54.0));
#416=CARTESIAN_POINT('',(-2.39618604874524,-9.79714323120858,15.6499998826993));
#417=CARTESIAN_POINT('',(-2.00331713081758,-9.86966132085557,15.3565868511301));
#418=CARTESIAN_POINT('',(-1.58609304299647,-9.92963474847536,15.0813482286711));
#419=CARTESIAN_POINT('',(-1.13267421436881,-9.96964756638343,14.8851177332242));
#420=CARTESIAN_POINT('',(-0.855149936338882,-9.99413823086574,14.7650108405723));
#421=CARTESIAN_POINT('',(-0.558022422546713,-10.0111457336003,14.6756611763462));
#422=CARTESIAN_POINT('',(-0.256372853433768,-10.0172101340229,14.6437873044947));
#423=CARTESIAN_POINT('',(0.0477133605717466,-10.0233235210571,14.6116559639942));
#424=CARTESIAN_POINT('',(0.362692684039951,-10.0180309861578,14.6403791479113));
#425=CARTESIAN_POINT('',(0.657983814037701,-10.002828132986,14.7185471969575));
#426=CARTESIAN_POINT('',(1.05245687815543,-9.9825189686909,14.8229702110304));
#427=CARTESIAN_POINT('',(1.4248670799825,-9.94513730132958,15.0094394215042));
#428=CARTESIAN_POINT('',(1.77057995637259,-9.89775630766004,15.2219559499763));
#429=CARTESIAN_POINT('',(1.98625942966532,-9.86819678455104,15.3545383790877));
#430=CARTESIAN_POINT('',(2.19416045075317,-9.83443358786154,15.4991182567267));
#431=CARTESIAN_POINT('',(2.3961846453786,-9.79714277634108,15.6499994062366));
#432=CARTESIAN_POINT('',(-2.39618604874524,-9.79714323120858,15.6499998826993));
#433=CARTESIAN_POINT('',(2.3961846453786,-9.79714277634108,15.6499994062366));
#434=CARTESIAN_POINT('',(0.0,-13.0,15.65));
#435=CARTESIAN_POINT('',(0.0,-13.0,13.65));
#436=CARTESIAN_POINT('',(-2094.31096897581,-165.100078733755,-39.5508321189835));
#437=CARTESIAN_POINT('',(2.30015102129197,-9.72749250890858,19.0));
#438=CARTESIAN_POINT('',(0.0,-13.0,19.0));
#439=CARTESIAN_POINT('',(-2.30015102129197,-9.72749250890858,19.0));
#440=CARTESIAN_POINT('',(2094.31096904575,-165.100078612714,-39.550832123505));
#441=CARTESIAN_POINT('',(0.0,-13.0,19.0));
#442=CARTESIAN_POINT('',(0.0,4.67545595795221,19.0));
#443=CARTESIAN_POINT('',(-7.9998729465036,-7.52034873462951,19.0));
#444=CARTESIAN_POINT('',(-8.22724,-7.86697,2.5));
#445=CARTESIAN_POINT('',(8.22724,-7.86697,2.5));
#446=CARTESIAN_POINT('',(7.99987284028034,-7.52034880430694,19.0));
#447=CARTESIAN_POINT('',(0.0,4.67545595795221,19.0));
#448=CARTESIAN_POINT('',(0.0,4.67545595795221,2.5));
#449=CARTESIAN_POINT('',(4.9363421661785,-2.84999346877931,19.0));
#450=CARTESIAN_POINT('',(10.5127536664107,-3.16791473471223,19.0));
#451=CARTESIAN_POINT('',(10.92662,-3.19151,2.5));
#452=CARTESIAN_POINT('',(4.9363421661785,-2.84999346877931,2.5));
#453=CARTESIAN_POINT('',(-4.9363421661785,-2.84999346877931,19.0));
#454=CARTESIAN_POINT('',(-10.5127536608389,-3.16791483244269,19.0));
#455=CARTESIAN_POINT('',(-10.92662,-3.19151,2.5));
#456=CARTESIAN_POINT('',(-4.9363421661785,-2.84999346877931,2.5));
#457=CARTESIAN_POINT('',(4.04906126847029,-2.33772297897611,19.0));
#458=CARTESIAN_POINT('',(-2.51288081889951,10.6882736658499,19.0));
#459=CARTESIAN_POINT('',(-2.69938,11.05849,2.5));
#460=CARTESIAN_POINT('',(4.04906126847029,-2.33772297897611,2.5));
#461=CARTESIAN_POINT('',(0.0,5.69999693755836,19.0));
#462=CARTESIAN_POINT('',(2.51288079286838,10.6882736789633,19.0));
#463=CARTESIAN_POINT('',(2.69938,11.05849,2.5));
#464=CARTESIAN_POINT('',(0.0,5.69999693755837,2.5));
#465=CARTESIAN_POINT('',(-4.04906126847029,-2.33772297897611,19.0));
#466=CARTESIAN_POINT('',(-4.04906126847029,-2.33772297897611,2.5));
#467=CARTESIAN_POINT('',(0.0,4.11258836697792E-6,19.0));
#468=MECHANICAL_DESIGN_GEOMETRIC_PRESENTATION_REPRESENTATION('',(#24),#469);
#469=(GEOMETRIC_REPRESENTATION_CONTEXT(3)GLOBAL_UNCERTAINTY_ASSIGNED_CONTEXT((#470))
     GLOBAL_UNIT_ASSIGNED_CONTEXT((#476,#472,#471))REPRESENTATION_CONTEXT('C3-391',
     'TOP_LEVEL_ASSEMBLY_PART'));
#470=UNCERTAINTY_MEASURE_WITH_UNIT(LENGTH_MEASURE(0.0508),#476,'DISTANCE_ACCURACY_VALUE',
     'Maximum Tolerance applied to model');
#471=(NAMED_UNIT(*)SI_UNIT($,.STERADIAN.)SOLID_ANGLE_UNIT());
#472=(CONVERSION_BASED_UNIT('DEGREE',#474)NAMED_UNIT(*)PLANE_ANGLE_UNIT());
#473=DIMENSIONAL_EXPONENTS(0.0,0.0,0.0,0.0,0.0,0.0,0.0);
#474=PLANE_ANGLE_MEASURE_WITH_UNIT(PLANE_ANGLE_MEASURE(0.0174532925),#475);
#475=(NAMED_UNIT(*)PLANE_ANGLE_UNIT()SI_UNIT($,.RADIAN.));
#476=(LENGTH_UNIT()NAMED_UNIT(*)SI_UNIT(.MILLI.,.METRE.));
#477=CARTESIAN_POINT('',(0.0,0.0,0.0));
#478=DIRECTION('',(0.0,0.0,1.0));
#479=DIRECTION('',(1.0,0.0,0.0));
#480=AXIS2_PLACEMENT_3D('PCS',#477,#478,#479);
#481=CARTESIAN_POINT('',(0.0,0.0,0.0));
#482=DIRECTION('',(0.0,0.0,1.0));
#483=DIRECTION('',(1.0,0.0,0.0));
#484=AXIS2_PLACEMENT_3D('MCS',#481,#482,#483);
#485=CARTESIAN_POINT('',(0.0,0.0,-54.0));
#486=DIRECTION('',(0.0,0.0,1.0));
#487=DIRECTION('',(1.0,0.0,0.0));
#488=AXIS2_PLACEMENT_3D('CSW',#485,#486,#487);
#489=CONSTRUCTIVE_GEOMETRY_REPRESENTATION('supplemental geometry',(#480,#484,#488),
     #469);
#490=CONSTRUCTIVE_GEOMETRY_REPRESENTATION_RELATIONSHIP('supplemental geometry',$,
     #22,#489);
ENDSEC;
END-ISO-10303-21;
