ISO-10303-21;
HEADER;
FILE_DESCRIPTION(
/* description */ ('3-D model version:1'),
/* implementation_level */ '2;1');
FILE_NAME(
/* name */ 'C3-391.EH-12038',
/* time_stamp */ '2016-12-02T13:56:20',
/* author */ ('InteractiveCad'),
/* organization */ ('AB Sandvik Coromant'),
/* preprocessor_version */ 'ST-DEVELOPER v11',
/* originating_system */ 'SIEMENS UGS NX 6.0',
/* authorization */ '');
FILE_SCHEMA(('AUTOMOTIVE_DESIGN'));
ENDSEC;
DATA;
#10=SHAPE_REPRESENTATION_RELATIONSHIP('None','relationship between ds68DC2Drqcl-None and ds68DC2Drqcl-None',
     #22,#11);
#11=ADVANCED_BREP_SHAPE_REPRESENTATION('ds68DC2Drqcl-None',(#32),#449);
#12=SHAPE_DEFINITION_REPRESENTATION(#13,#22);
#13=PRODUCT_DEFINITION_SHAPE('','',#14);
#14=PRODUCT_DEFINITION(' ','',#16,#15);
#15=PRODUCT_DEFINITION_CONTEXT('part definition',#21,'design');
#16=PRODUCT_DEFINITION_FORMATION_WITH_SPECIFIED_SOURCE(' ',' ',#18,.NOT_KNOWN.);
#17=PRODUCT_RELATED_PRODUCT_CATEGORY('part','',(#18));
#18=PRODUCT('ds68DC2Drqcl','ds68DC2Drqcl',' ',(#19));
#19=PRODUCT_CONTEXT(' ',#21,'mechanical');
#20=APPLICATION_PROTOCOL_DEFINITION('international standard','automotive_design',
     2001,#21);
#21=APPLICATION_CONTEXT('core data for automotive mechanical design processes');
#22=SHAPE_REPRESENTATION('ds68DC2Drqcl-None',(#247),#449);
#23=PRESENTATION_LAYER_ASSIGNMENT('1','Layer 1',(#32));
#24=STYLED_ITEM('',(#25),#32);
#25=PRESENTATION_STYLE_ASSIGNMENT((#26));
#26=SURFACE_STYLE_USAGE(.BOTH.,#27);
#27=SURFACE_SIDE_STYLE('',(#28));
#28=SURFACE_STYLE_FILL_AREA(#29);
#29=FILL_AREA_STYLE('',(#30));
#30=FILL_AREA_STYLE_COLOUR('',#31);
#31=COLOUR_RGB('Medium Gray',0.490196078431373,0.490196078431373,0.490196078431373);
#32=MANIFOLD_SOLID_BREP('NOCUT',#33);
#33=CLOSED_SHELL('',(#63,#64,#65,#66,#67,#68,#69,#70,#71,#72,#73,#74,#75,#76,#77));
#34=TOROIDAL_SURFACE('',#283,10.8,5.0);
#35=FACE_BOUND('',#106,.T.);
#36=FACE_BOUND('',#107,.T.);
#37=FACE_BOUND('',#108,.T.);
#38=FACE_BOUND('',#109,.T.);
#39=FACE_BOUND('',#110,.T.);
#40=FACE_BOUND('',#111,.T.);
#41=FACE_BOUND('',#112,.T.);
#42=FACE_BOUND('',#113,.T.);
#43=FACE_BOUND('',#114,.T.);
#44=FACE_BOUND('',#115,.T.);
#45=PLANE('',#273);
#46=PLANE('',#275);
#47=PLANE('',#277);
#48=LINE('',#396,#54);
#49=LINE('',#400,#55);
#50=LINE('',#408,#56);
#51=LINE('',#412,#57);
#52=LINE('',#418,#58);
#53=LINE('',#424,#59);
#54=VECTOR('',#301,1.0);
#55=VECTOR('',#304,1.0);
#56=VECTOR('',#313,1.0);
#57=VECTOR('',#318,1.0);
#58=VECTOR('',#325,1.0);
#59=VECTOR('',#332,1.0);
#60=CYLINDRICAL_SURFACE('',#253,4.0);
#61=CYLINDRICAL_SURFACE('',#279,16.0);
#62=CYLINDRICAL_SURFACE('',#284,5.8);
#63=ADVANCED_FACE('',(#86),#78,.F.);
#64=ADVANCED_FACE('',(#87),#60,.F.);
#65=ADVANCED_FACE('',(#88),#79,.T.);
#66=ADVANCED_FACE('',(#89),#80,.T.);
#67=ADVANCED_FACE('',(#90),#81,.T.);
#68=ADVANCED_FACE('',(#91),#82,.T.);
#69=ADVANCED_FACE('',(#92),#83,.T.);
#70=ADVANCED_FACE('',(#93),#84,.T.);
#71=ADVANCED_FACE('',(#94),#45,.T.);
#72=ADVANCED_FACE('',(#95),#46,.F.);
#73=ADVANCED_FACE('',(#35,#36),#47,.F.);
#74=ADVANCED_FACE('',(#37,#38),#61,.T.);
#75=ADVANCED_FACE('',(#39,#40),#85,.T.);
#76=ADVANCED_FACE('',(#41,#42),#34,.F.);
#77=ADVANCED_FACE('',(#43,#44),#62,.T.);
#78=CONICAL_SURFACE('',#249,2.0,45.0);
#79=CONICAL_SURFACE('',#257,14.9999975642769,1.43916999999995);
#80=CONICAL_SURFACE('',#260,6.00000517228696,1.43916999999995);
#81=CONICAL_SURFACE('',#263,6.00000517228696,1.43916999999995);
#82=CONICAL_SURFACE('',#266,14.9999993910693,1.43916999999995);
#83=CONICAL_SURFACE('',#269,6.00000835704711,1.43916999999995);
#84=CONICAL_SURFACE('',#272,14.9999993910693,1.43916999999995);
#85=CONICAL_SURFACE('',#281,16.0,74.9999999999996);
#86=FACE_OUTER_BOUND('',#96,.T.);
#87=FACE_OUTER_BOUND('',#97,.T.);
#88=FACE_OUTER_BOUND('',#98,.T.);
#89=FACE_OUTER_BOUND('',#99,.T.);
#90=FACE_OUTER_BOUND('',#100,.T.);
#91=FACE_OUTER_BOUND('',#101,.T.);
#92=FACE_OUTER_BOUND('',#102,.T.);
#93=FACE_OUTER_BOUND('',#103,.T.);
#94=FACE_OUTER_BOUND('',#104,.T.);
#95=FACE_OUTER_BOUND('',#105,.T.);
#96=EDGE_LOOP('',(#138,#139));
#97=EDGE_LOOP('',(#140,#141,#142,#143));
#98=EDGE_LOOP('',(#144,#145,#146,#147,#148,#149,#150,#151));
#99=EDGE_LOOP('',(#152,#153,#154,#155));
#100=EDGE_LOOP('',(#156,#157,#158,#159));
#101=EDGE_LOOP('',(#160,#161,#162,#163));
#102=EDGE_LOOP('',(#164,#165,#166,#167));
#103=EDGE_LOOP('',(#168,#169,#170,#171));
#104=EDGE_LOOP('',(#172,#173,#174,#175,#176,#177,#178,#179));
#105=EDGE_LOOP('',(#180));
#106=EDGE_LOOP('',(#181,#182,#183,#184,#185,#186));
#107=EDGE_LOOP('',(#187));
#108=EDGE_LOOP('',(#188));
#109=EDGE_LOOP('',(#189));
#110=EDGE_LOOP('',(#190));
#111=EDGE_LOOP('',(#191));
#112=EDGE_LOOP('',(#192));
#113=EDGE_LOOP('',(#193));
#114=EDGE_LOOP('',(#194));
#115=EDGE_LOOP('',(#195));
#116=CIRCLE('',#248,4.0);
#117=CIRCLE('',#250,2103.17546319548);
#118=CIRCLE('',#251,4.0);
#119=CIRCLE('',#252,2103.17546325638);
#120=CIRCLE('',#254,14.5854591720589);
#121=CIRCLE('',#255,15.0628064115827);
#122=CIRCLE('',#256,14.5854591720589);
#123=CIRCLE('',#258,5.58546678006898);
#124=CIRCLE('',#259,6.06281401959271);
#125=CIRCLE('',#261,5.58546678006898);
#126=CIRCLE('',#262,6.06281401959271);
#127=CIRCLE('',#264,14.5854609988514);
#128=CIRCLE('',#265,15.0628082383751);
#129=CIRCLE('',#267,5.58546996482912);
#130=CIRCLE('',#268,6.06281720435286);
#131=CIRCLE('',#270,14.5854609988514);
#132=CIRCLE('',#271,15.0628082383751);
#133=CIRCLE('',#274,5.8);
#134=CIRCLE('',#276,16.0);
#135=CIRCLE('',#278,16.0);
#136=CIRCLE('',#280,9.50590477448751);
#137=CIRCLE('',#282,5.8);
#138=ORIENTED_EDGE('',*,*,#217,.T.);
#139=ORIENTED_EDGE('',*,*,#218,.F.);
#140=ORIENTED_EDGE('',*,*,#219,.F.);
#141=ORIENTED_EDGE('',*,*,#220,.F.);
#142=ORIENTED_EDGE('',*,*,#221,.F.);
#143=ORIENTED_EDGE('',*,*,#218,.T.);
#144=ORIENTED_EDGE('',*,*,#219,.T.);
#145=ORIENTED_EDGE('',*,*,#217,.F.);
#146=ORIENTED_EDGE('',*,*,#221,.T.);
#147=ORIENTED_EDGE('',*,*,#222,.T.);
#148=ORIENTED_EDGE('',*,*,#223,.F.);
#149=ORIENTED_EDGE('',*,*,#224,.T.);
#150=ORIENTED_EDGE('',*,*,#225,.T.);
#151=ORIENTED_EDGE('',*,*,#226,.T.);
#152=ORIENTED_EDGE('',*,*,#227,.T.);
#153=ORIENTED_EDGE('',*,*,#225,.F.);
#154=ORIENTED_EDGE('',*,*,#228,.T.);
#155=ORIENTED_EDGE('',*,*,#229,.T.);
#156=ORIENTED_EDGE('',*,*,#230,.T.);
#157=ORIENTED_EDGE('',*,*,#231,.F.);
#158=ORIENTED_EDGE('',*,*,#232,.T.);
#159=ORIENTED_EDGE('',*,*,#223,.T.);
#160=ORIENTED_EDGE('',*,*,#233,.T.);
#161=ORIENTED_EDGE('',*,*,#234,.F.);
#162=ORIENTED_EDGE('',*,*,#235,.T.);
#163=ORIENTED_EDGE('',*,*,#231,.T.);
#164=ORIENTED_EDGE('',*,*,#236,.T.);
#165=ORIENTED_EDGE('',*,*,#237,.F.);
#166=ORIENTED_EDGE('',*,*,#238,.T.);
#167=ORIENTED_EDGE('',*,*,#234,.T.);
#168=ORIENTED_EDGE('',*,*,#239,.T.);
#169=ORIENTED_EDGE('',*,*,#229,.F.);
#170=ORIENTED_EDGE('',*,*,#240,.T.);
#171=ORIENTED_EDGE('',*,*,#237,.T.);
#172=ORIENTED_EDGE('',*,*,#220,.T.);
#173=ORIENTED_EDGE('',*,*,#226,.F.);
#174=ORIENTED_EDGE('',*,*,#227,.F.);
#175=ORIENTED_EDGE('',*,*,#239,.F.);
#176=ORIENTED_EDGE('',*,*,#236,.F.);
#177=ORIENTED_EDGE('',*,*,#233,.F.);
#178=ORIENTED_EDGE('',*,*,#230,.F.);
#179=ORIENTED_EDGE('',*,*,#222,.F.);
#180=ORIENTED_EDGE('',*,*,#241,.T.);
#181=ORIENTED_EDGE('',*,*,#238,.F.);
#182=ORIENTED_EDGE('',*,*,#240,.F.);
#183=ORIENTED_EDGE('',*,*,#228,.F.);
#184=ORIENTED_EDGE('',*,*,#224,.F.);
#185=ORIENTED_EDGE('',*,*,#232,.F.);
#186=ORIENTED_EDGE('',*,*,#235,.F.);
#187=ORIENTED_EDGE('',*,*,#242,.F.);
#188=ORIENTED_EDGE('',*,*,#243,.F.);
#189=ORIENTED_EDGE('',*,*,#242,.T.);
#190=ORIENTED_EDGE('',*,*,#244,.F.);
#191=ORIENTED_EDGE('',*,*,#243,.T.);
#192=ORIENTED_EDGE('',*,*,#245,.F.);
#193=ORIENTED_EDGE('',*,*,#244,.T.);
#194=ORIENTED_EDGE('',*,*,#241,.F.);
#195=ORIENTED_EDGE('',*,*,#245,.T.);
#196=VERTEX_POINT('',#384);
#197=VERTEX_POINT('',#385);
#198=VERTEX_POINT('',#389);
#199=VERTEX_POINT('',#391);
#200=VERTEX_POINT('',#395);
#201=VERTEX_POINT('',#397);
#202=VERTEX_POINT('',#399);
#203=VERTEX_POINT('',#401);
#204=VERTEX_POINT('',#405);
#205=VERTEX_POINT('',#407);
#206=VERTEX_POINT('',#411);
#207=VERTEX_POINT('',#413);
#208=VERTEX_POINT('',#417);
#209=VERTEX_POINT('',#419);
#210=VERTEX_POINT('',#423);
#211=VERTEX_POINT('',#425);
#212=VERTEX_POINT('',#433);
#213=VERTEX_POINT('',#436);
#214=VERTEX_POINT('',#439);
#215=VERTEX_POINT('',#442);
#216=VERTEX_POINT('',#445);
#217=EDGE_CURVE('',#196,#197,#246,.T.);
#218=EDGE_CURVE('',#196,#197,#116,.T.);
#219=EDGE_CURVE('',#198,#197,#117,.T.);
#220=EDGE_CURVE('',#199,#198,#118,.T.);
#221=EDGE_CURVE('',#196,#199,#119,.T.);
#222=EDGE_CURVE('',#199,#200,#120,.T.);
#223=EDGE_CURVE('',#201,#200,#48,.T.);
#224=EDGE_CURVE('',#201,#202,#121,.T.);
#225=EDGE_CURVE('',#202,#203,#49,.T.);
#226=EDGE_CURVE('',#203,#198,#122,.T.);
#227=EDGE_CURVE('',#204,#203,#123,.T.);
#228=EDGE_CURVE('',#202,#205,#124,.T.);
#229=EDGE_CURVE('',#205,#204,#50,.T.);
#230=EDGE_CURVE('',#200,#206,#125,.T.);
#231=EDGE_CURVE('',#207,#206,#51,.T.);
#232=EDGE_CURVE('',#207,#201,#126,.T.);
#233=EDGE_CURVE('',#206,#208,#127,.T.);
#234=EDGE_CURVE('',#209,#208,#52,.T.);
#235=EDGE_CURVE('',#209,#207,#128,.T.);
#236=EDGE_CURVE('',#208,#210,#129,.T.);
#237=EDGE_CURVE('',#211,#210,#53,.T.);
#238=EDGE_CURVE('',#211,#209,#130,.T.);
#239=EDGE_CURVE('',#210,#204,#131,.T.);
#240=EDGE_CURVE('',#205,#211,#132,.T.);
#241=EDGE_CURVE('',#212,#212,#133,.T.);
#242=EDGE_CURVE('',#213,#213,#134,.T.);
#243=EDGE_CURVE('',#214,#214,#135,.T.);
#244=EDGE_CURVE('',#215,#215,#136,.T.);
#245=EDGE_CURVE('',#216,#216,#137,.T.);
#246=B_SPLINE_CURVE_WITH_KNOTS('',3,(#368,#369,#370,#371,#372,#373,#374,#375,#376,
     #377,#378,#379,#380,#381,#382,#383),.UNSPECIFIED.,.F.,.F.,(4,3,3,3,3,4),(0.0,
     0.2800596981137,0.451536062893216,0.625138107805911,0.856610091405707,1.0),
     .UNSPECIFIED.);
#247=AXIS2_PLACEMENT_3D('',#367,#285,#286);
#248=AXIS2_PLACEMENT_3D('',#386,#287,#288);
#249=AXIS2_PLACEMENT_3D('',#387,#289,#290);
#250=AXIS2_PLACEMENT_3D('',#388,#291,#292);
#251=AXIS2_PLACEMENT_3D('',#390,#293,#294);
#252=AXIS2_PLACEMENT_3D('',#392,#295,#296);
#253=AXIS2_PLACEMENT_3D('',#393,#297,#298);
#254=AXIS2_PLACEMENT_3D('',#394,#299,#300);
#255=AXIS2_PLACEMENT_3D('',#398,#302,#303);
#256=AXIS2_PLACEMENT_3D('',#402,#305,#306);
#257=AXIS2_PLACEMENT_3D('',#403,#307,#308);
#258=AXIS2_PLACEMENT_3D('',#404,#309,#310);
#259=AXIS2_PLACEMENT_3D('',#406,#311,#312);
#260=AXIS2_PLACEMENT_3D('',#409,#314,#315);
#261=AXIS2_PLACEMENT_3D('',#410,#316,#317);
#262=AXIS2_PLACEMENT_3D('',#414,#319,#320);
#263=AXIS2_PLACEMENT_3D('',#415,#321,#322);
#264=AXIS2_PLACEMENT_3D('',#416,#323,#324);
#265=AXIS2_PLACEMENT_3D('',#420,#326,#327);
#266=AXIS2_PLACEMENT_3D('',#421,#328,#329);
#267=AXIS2_PLACEMENT_3D('',#422,#330,#331);
#268=AXIS2_PLACEMENT_3D('',#426,#333,#334);
#269=AXIS2_PLACEMENT_3D('',#427,#335,#336);
#270=AXIS2_PLACEMENT_3D('',#428,#337,#338);
#271=AXIS2_PLACEMENT_3D('',#429,#339,#340);
#272=AXIS2_PLACEMENT_3D('',#430,#341,#342);
#273=AXIS2_PLACEMENT_3D('',#431,#343,#344);
#274=AXIS2_PLACEMENT_3D('',#432,#345,#346);
#275=AXIS2_PLACEMENT_3D('',#434,#347,#348);
#276=AXIS2_PLACEMENT_3D('',#435,#349,#350);
#277=AXIS2_PLACEMENT_3D('',#437,#351,#352);
#278=AXIS2_PLACEMENT_3D('',#438,#353,#354);
#279=AXIS2_PLACEMENT_3D('',#440,#355,#356);
#280=AXIS2_PLACEMENT_3D('',#441,#357,#358);
#281=AXIS2_PLACEMENT_3D('',#443,#359,#360);
#282=AXIS2_PLACEMENT_3D('',#444,#361,#362);
#283=AXIS2_PLACEMENT_3D('',#446,#363,#364);
#284=AXIS2_PLACEMENT_3D('',#447,#365,#366);
#285=DIRECTION('',(0.0,0.0,1.0));
#286=DIRECTION('',(1.0,0.0,0.0));
#287=DIRECTION('',(0.0,0.0,-1.0));
#288=DIRECTION('',(-1.61726194475907E-13,1.0,0.0));
#289=DIRECTION('',(0.0,0.0,1.0));
#290=DIRECTION('',(0.0,1.0,-6.05941333924034E-17));
#291=DIRECTION('',(-0.0732505293981271,0.997052233161759,-0.0228298990370784));
#292=DIRECTION('',(0.996878841868759,0.0738752372038326,0.0278392521896502));
#293=DIRECTION('',(0.0,-6.12303176911189E-17,-1.0));
#294=DIRECTION('',(-1.61726194475907E-13,1.0,0.0));
#295=DIRECTION('',(0.0732505293384454,0.997052233166181,-0.0228298990354594));
#296=DIRECTION('',(-0.996924503956327,0.0738421201572323,0.0262464226536937));
#297=DIRECTION('',(0.0,0.0,-1.0));
#298=DIRECTION('',(0.0,-1.0,0.0));
#299=DIRECTION('',(0.0,-6.12303176911189E-17,-1.0));
#300=DIRECTION('',(0.0,-1.0,0.0));
#301=DIRECTION('',(0.0137754746237107,0.0210007227156388,0.99968455321882));
#302=DIRECTION('',(0.0,0.0,1.0));
#303=DIRECTION('',(1.0,0.0,0.0));
#304=DIRECTION('',(-0.0137754810594535,0.0210007184940963,0.99968455321882));
#305=DIRECTION('',(0.0,-6.12303176911189E-17,-1.0));
#306=DIRECTION('',(0.0,-1.0,0.0));
#307=DIRECTION('',(0.0,0.0,-1.0));
#308=DIRECTION('',(0.0,-1.0,-1.32946274324873E-15));
#309=DIRECTION('',(0.0,-6.12303176911189E-17,-1.0));
#310=DIRECTION('',(0.866025250557684,-0.500000265396431,0.0));
#311=DIRECTION('',(0.0,0.0,1.0));
#312=DIRECTION('',(1.0,0.0,0.0));
#313=DIRECTION('',(-0.0250748958052459,0.00142956498407764,0.99968455321882));
#314=DIRECTION('',(0.0,0.0,-1.0));
#315=DIRECTION('',(0.0,-1.0,-1.71390336281022E-15));
#316=DIRECTION('',(0.0,-6.12303176911189E-17,-1.0));
#317=DIRECTION('',(-0.866025250557684,-0.500000265396431,0.0));
#318=DIRECTION('',(0.025074896142823,0.00142955906288819,0.99968455321882));
#319=DIRECTION('',(0.0,0.0,1.0));
#320=DIRECTION('',(1.0,0.0,0.0));
#321=DIRECTION('',(0.0,0.0,-1.0));
#322=DIRECTION('',(0.0,-1.0,-1.71390336281022E-15));
#323=DIRECTION('',(0.0,-6.12303176911189E-17,-1.0));
#324=DIRECTION('',(-0.866025438941074,0.499999939106917,0.0));
#325=DIRECTION('',(0.011299415183886,-0.0224302757938864,0.99968455321882));
#326=DIRECTION('',(0.0,0.0,1.0));
#327=DIRECTION('',(1.0,0.0,0.0));
#328=DIRECTION('',(0.0,0.0,-1.0));
#329=DIRECTION('',(0.0,-1.0,-1.32946268271937E-15));
#330=DIRECTION('',(0.0,-6.12303176911189E-17,-1.0));
#331=DIRECTION('',(0.0,1.0,0.0));
#332=DIRECTION('',(-0.0112994167610325,-0.0224302749993875,0.99968455321882));
#333=DIRECTION('',(0.0,0.0,1.0));
#334=DIRECTION('',(1.0,0.0,0.0));
#335=DIRECTION('',(0.0,0.0,-1.0));
#336=DIRECTION('',(0.0,-1.0,-1.71390318743268E-15));
#337=DIRECTION('',(0.0,-6.12303176911189E-17,-1.0));
#338=DIRECTION('',(0.866025438941074,0.499999939106917,0.0));
#339=DIRECTION('',(0.0,0.0,1.0));
#340=DIRECTION('',(1.0,0.0,0.0));
#341=DIRECTION('',(0.0,0.0,-1.0));
#342=DIRECTION('',(0.0,-1.0,-1.32946268271937E-15));
#343=DIRECTION('',(0.0,6.12303176911189E-17,1.0));
#344=DIRECTION('',(0.0,1.0,-6.24500451351651E-17));
#345=DIRECTION('',(0.0,0.0,-1.0));
#346=DIRECTION('',(-1.0,0.0,0.0));
#347=DIRECTION('',(0.0,0.0,1.0));
#348=DIRECTION('',(1.0,0.0,0.0));
#349=DIRECTION('',(0.0,0.0,-1.0));
#350=DIRECTION('',(-1.0,0.0,0.0));
#351=DIRECTION('',(0.0,0.0,-1.0));
#352=DIRECTION('',(-1.0,0.0,0.0));
#353=DIRECTION('',(0.0,0.0,-1.0));
#354=DIRECTION('',(-1.0,0.0,0.0));
#355=DIRECTION('',(0.0,0.0,-1.0));
#356=DIRECTION('',(-1.0,0.0,0.0));
#357=DIRECTION('',(0.0,0.0,-1.0));
#358=DIRECTION('',(-1.0,0.0,0.0));
#359=DIRECTION('',(0.0,0.0,1.0));
#360=DIRECTION('',(1.0,0.0,-3.70266800540425E-18));
#361=DIRECTION('',(0.0,0.0,-1.0));
#362=DIRECTION('',(-1.0,0.0,0.0));
#363=DIRECTION('',(0.0,0.0,-1.0));
#364=DIRECTION('',(-1.0,0.0,0.0));
#365=DIRECTION('',(0.0,0.0,-1.0));
#366=DIRECTION('',(-1.0,0.0,0.0));
#367=CARTESIAN_POINT('',(0.0,0.0,0.0));
#368=CARTESIAN_POINT('',(-2.39618604874524,-9.79714323120858,15.6499998826993));
#369=CARTESIAN_POINT('',(-2.00331713081758,-9.86966132085557,15.3565868511301));
#370=CARTESIAN_POINT('',(-1.58609304299647,-9.92963474847536,15.0813482286711));
#371=CARTESIAN_POINT('',(-1.13267421436881,-9.96964756638343,14.8851177332242));
#372=CARTESIAN_POINT('',(-0.855149936338882,-9.99413823086574,14.7650108405723));
#373=CARTESIAN_POINT('',(-0.558022422546713,-10.0111457336003,14.6756611763462));
#374=CARTESIAN_POINT('',(-0.256372853433768,-10.0172101340229,14.6437873044947));
#375=CARTESIAN_POINT('',(0.0477133605717466,-10.0233235210571,14.6116559639942));
#376=CARTESIAN_POINT('',(0.362692684039951,-10.0180309861578,14.6403791479113));
#377=CARTESIAN_POINT('',(0.657983814037701,-10.002828132986,14.7185471969575));
#378=CARTESIAN_POINT('',(1.05245687815543,-9.9825189686909,14.8229702110304));
#379=CARTESIAN_POINT('',(1.4248670799825,-9.94513730132958,15.0094394215042));
#380=CARTESIAN_POINT('',(1.77057995637259,-9.89775630766004,15.2219559499763));
#381=CARTESIAN_POINT('',(1.98625942966532,-9.86819678455104,15.3545383790877));
#382=CARTESIAN_POINT('',(2.19416045075317,-9.83443358786154,15.4991182567267));
#383=CARTESIAN_POINT('',(2.3961846453786,-9.79714277634108,15.6499994062366));
#384=CARTESIAN_POINT('',(-2.39618604874524,-9.79714323120858,15.6499998826993));
#385=CARTESIAN_POINT('',(2.3961846453786,-9.79714277634108,15.6499994062366));
#386=CARTESIAN_POINT('',(0.0,-13.0,15.65));
#387=CARTESIAN_POINT('',(0.0,-13.0,13.65));
#388=CARTESIAN_POINT('',(-2094.31096897581,-165.100078733755,-39.5508321189835));
#389=CARTESIAN_POINT('',(2.30015102129197,-9.72749250890858,19.0));
#390=CARTESIAN_POINT('',(0.0,-13.0,19.0));
#391=CARTESIAN_POINT('',(-2.30015102129197,-9.72749250890858,19.0));
#392=CARTESIAN_POINT('',(2094.31096904575,-165.100078612714,-39.550832123505));
#393=CARTESIAN_POINT('',(0.0,-13.0,19.0));
#394=CARTESIAN_POINT('',(0.0,4.67545595795221,19.0));
#395=CARTESIAN_POINT('',(-7.9998729465036,-7.52034873462951,19.0));
#396=CARTESIAN_POINT('',(-8.22724,-7.86697,2.5));
#397=CARTESIAN_POINT('',(-8.26169214283496,-7.91948667509894,-5.55111512312578E-14));
#398=CARTESIAN_POINT('',(0.0,4.67545595795221,0.0));
#399=CARTESIAN_POINT('',(8.26169214283496,-7.91948667509894,-5.55111512312578E-14));
#400=CARTESIAN_POINT('',(8.22724,-7.86697,2.5));
#401=CARTESIAN_POINT('',(7.99987284028034,-7.52034880430694,19.0));
#402=CARTESIAN_POINT('',(0.0,4.67545595795221,19.0));
#403=CARTESIAN_POINT('',(0.0,4.67545595795221,2.5));
#404=CARTESIAN_POINT('',(4.9363421661785,-2.84999346877931,19.0));
#405=CARTESIAN_POINT('',(10.5127536664107,-3.16791473471223,19.0));
#406=CARTESIAN_POINT('',(4.9363421661785,-2.84999346877931,0.0));
#407=CARTESIAN_POINT('',(10.9893271560567,-3.19508265793908,-5.55111512312578E-14));
#408=CARTESIAN_POINT('',(10.92662,-3.19151,2.5));
#409=CARTESIAN_POINT('',(4.9363421661785,-2.84999346877931,2.5));
#410=CARTESIAN_POINT('',(-4.9363421661785,-2.84999346877931,19.0));
#411=CARTESIAN_POINT('',(-10.5127536608389,-3.16791483244269,19.0));
#412=CARTESIAN_POINT('',(-10.92662,-3.19151,2.5));
#413=CARTESIAN_POINT('',(-10.9893271560569,-3.19508265793909,0.0));
#414=CARTESIAN_POINT('',(-4.9363421661785,-2.84999346877931,0.0));
#415=CARTESIAN_POINT('',(-4.9363421661785,-2.84999346877931,2.5));
#416=CARTESIAN_POINT('',(4.04906126847029,-2.33772297897611,19.0));
#417=CARTESIAN_POINT('',(-2.51288081889951,10.6882736658499,19.0));
#418=CARTESIAN_POINT('',(-2.69938,11.05849,2.5));
#419=CARTESIAN_POINT('',(-2.72763808621141,11.1145830643132,-5.55111512312578E-14));
#420=CARTESIAN_POINT('',(4.04906126847029,-2.33772297897611,0.0));
#421=CARTESIAN_POINT('',(4.04906126847029,-2.33772297897611,2.5));
#422=CARTESIAN_POINT('',(0.0,5.69999693755836,19.0));
#423=CARTESIAN_POINT('',(2.51288079286838,10.6882736789633,19.0));
#424=CARTESIAN_POINT('',(2.69938,11.05849,2.5));
#425=CARTESIAN_POINT('',(2.72763808621137,11.1145830643131,-5.55111512312578E-14));
#426=CARTESIAN_POINT('',(0.0,5.69999693755837,0.0));
#427=CARTESIAN_POINT('',(0.0,5.69999693755837,2.5));
#428=CARTESIAN_POINT('',(-4.04906126847029,-2.33772297897611,19.0));
#429=CARTESIAN_POINT('',(-4.04906126847029,-2.33772297897611,0.0));
#430=CARTESIAN_POINT('',(-4.04906126847029,-2.33772297897611,2.5));
#431=CARTESIAN_POINT('',(0.0,4.11258836697792E-6,19.0));
#432=CARTESIAN_POINT('',(0.0,0.0,-38.0));
#433=CARTESIAN_POINT('',(-5.8,0.0,-38.0));
#434=CARTESIAN_POINT('',(0.0,-5.8,-38.0));
#435=CARTESIAN_POINT('',(0.0,0.0,0.0));
#436=CARTESIAN_POINT('',(-16.0,0.0,0.0));
#437=CARTESIAN_POINT('',(0.0,-10.3873504536305,-5.55111512312578E-14));
#438=CARTESIAN_POINT('',(0.0,0.0,-15.0));
#439=CARTESIAN_POINT('',(-16.0,0.0,-15.0));
#440=CARTESIAN_POINT('',(0.0,0.0,-1.11022302462516E-13));
#441=CARTESIAN_POINT('',(0.0,0.0,-16.7400875712469));
#442=CARTESIAN_POINT('',(-9.50590477448751,0.0,-16.7400875712469));
#443=CARTESIAN_POINT('',(0.0,0.0,-15.0));
#444=CARTESIAN_POINT('',(0.0,0.0,-21.5697167026923));
#445=CARTESIAN_POINT('',(-5.8,0.0,-21.5697167026923));
#446=CARTESIAN_POINT('',(0.0,0.0,-21.5697167026923));
#447=CARTESIAN_POINT('',(0.0,0.0,-1.11022302462516E-13));
#448=MECHANICAL_DESIGN_GEOMETRIC_PRESENTATION_REPRESENTATION('',(#24),#449);
#449=(GEOMETRIC_REPRESENTATION_CONTEXT(3)GLOBAL_UNCERTAINTY_ASSIGNED_CONTEXT((#450))
     GLOBAL_UNIT_ASSIGNED_CONTEXT((#456,#452,#451))REPRESENTATION_CONTEXT('C3-391',
     'TOP_LEVEL_ASSEMBLY_PART'));
#450=UNCERTAINTY_MEASURE_WITH_UNIT(LENGTH_MEASURE(0.0508),#456,'DISTANCE_ACCURACY_VALUE',
     'Maximum Tolerance applied to model');
#451=(NAMED_UNIT(*)SI_UNIT($,.STERADIAN.)SOLID_ANGLE_UNIT());
#452=(CONVERSION_BASED_UNIT('DEGREE',#454)NAMED_UNIT(*)PLANE_ANGLE_UNIT());
#453=DIMENSIONAL_EXPONENTS(0.0,0.0,0.0,0.0,0.0,0.0,0.0);
#454=PLANE_ANGLE_MEASURE_WITH_UNIT(PLANE_ANGLE_MEASURE(0.0174532925),#455);
#455=(NAMED_UNIT(*)PLANE_ANGLE_UNIT()SI_UNIT($,.RADIAN.));
#456=(LENGTH_UNIT()NAMED_UNIT(*)SI_UNIT(.MILLI.,.METRE.));
#457=CARTESIAN_POINT('',(0.0,0.0,0.0));
#458=DIRECTION('',(0.0,0.0,1.0));
#459=DIRECTION('',(1.0,0.0,0.0));
#460=AXIS2_PLACEMENT_3D('PCS',#457,#458,#459);
#461=CARTESIAN_POINT('',(0.0,0.0,0.0));
#462=DIRECTION('',(0.0,0.0,1.0));
#463=DIRECTION('',(1.0,0.0,0.0));
#464=AXIS2_PLACEMENT_3D('MCS',#461,#462,#463);
#465=CARTESIAN_POINT('',(0.0,0.0,-38.0));
#466=DIRECTION('',(0.0,0.0,1.0));
#467=DIRECTION('',(1.0,0.0,0.0));
#468=AXIS2_PLACEMENT_3D('CSW',#465,#466,#467);
#469=CONSTRUCTIVE_GEOMETRY_REPRESENTATION('supplemental geometry',(#460,#464,#468),
     #449);
#470=CONSTRUCTIVE_GEOMETRY_REPRESENTATION_RELATIONSHIP('supplemental geometry',$,
     #22,#469);
ENDSEC;
END-ISO-10303-21;
