ISO-10303-21;
HEADER;
FILE_DESCRIPTION(
/* description */ ('3-D model version:1'),
/* implementation_level */ '2;1');
FILE_NAME(
/* name */ 'C3-391.32-13102',
/* time_stamp */ '2016-12-02T14:01:49',
/* author */ ('InteractiveCad'),
/* organization */ ('AB Sandvik Coromant'),
/* preprocessor_version */ 'ST-DEVELOPER v11',
/* originating_system */ 'SIEMENS UGS NX 6.0',
/* authorization */ '');
FILE_SCHEMA(('AUTOMOTIVE_DESIGN'));
ENDSEC;
DATA;
#10=SHAPE_REPRESENTATION_RELATIONSHIP('None','relationship between ds681106m47h-None and ds681106m47h-None',
     #22,#11);
#11=ADVANCED_BREP_SHAPE_REPRESENTATION('ds681106m47h-None',(#32),#489);
#12=SHAPE_DEFINITION_REPRESENTATION(#13,#22);
#13=PRODUCT_DEFINITION_SHAPE('','',#14);
#14=PRODUCT_DEFINITION(' ','',#16,#15);
#15=PRODUCT_DEFINITION_CONTEXT('part definition',#21,'design');
#16=PRODUCT_DEFINITION_FORMATION_WITH_SPECIFIED_SOURCE(' ',' ',#18,.NOT_KNOWN.);
#17=PRODUCT_RELATED_PRODUCT_CATEGORY('part','',(#18));
#18=PRODUCT('ds681106m47h','ds681106m47h',' ',(#19));
#19=PRODUCT_CONTEXT(' ',#21,'mechanical');
#20=APPLICATION_PROTOCOL_DEFINITION('international standard','automotive_design',
     2001,#21);
#21=APPLICATION_CONTEXT('core data for automotive mechanical design processes');
#22=SHAPE_REPRESENTATION('ds681106m47h-None',(#269),#489);
#23=PRESENTATION_LAYER_ASSIGNMENT('1','Layer 1',(#32));
#24=STYLED_ITEM('',(#25),#32);
#25=PRESENTATION_STYLE_ASSIGNMENT((#26));
#26=SURFACE_STYLE_USAGE(.BOTH.,#27);
#27=SURFACE_SIDE_STYLE('',(#28));
#28=SURFACE_STYLE_FILL_AREA(#29);
#29=FILL_AREA_STYLE('',(#30));
#30=FILL_AREA_STYLE_COLOUR('',#31);
#31=COLOUR_RGB('Medium Gray',0.490196078431373,0.490196078431373,0.490196078431373);
#32=MANIFOLD_SOLID_BREP('NOCUT',#33);
#33=CLOSED_SHELL('',(#70,#71,#72,#73,#74,#75,#76,#77,#78,#79,#80,#81,#82,#83,#84,
     #85,#86));
#34=LINE('',#464,#40);
#35=LINE('',#465,#41);
#36=LINE('',#471,#42);
#37=LINE('',#475,#43);
#38=LINE('',#479,#44);
#39=LINE('',#483,#45);
#40=VECTOR('',#369,1.0);
#41=VECTOR('',#370,1.0);
#42=VECTOR('',#377,1.0);
#43=VECTOR('',#382,1.0);
#44=VECTOR('',#387,1.0);
#45=VECTOR('',#392,1.0);
#46=B_SPLINE_CURVE_WITH_KNOTS('',3,(#436,#437,#438,#439,#440,#441,#442,#443,#444,
     #445,#446,#447,#448,#449,#450,#451),.UNSPECIFIED.,.F.,.F.,(4,3,3,3,3,4),(0.0,
     0.28005968441934,0.451536055685745,0.625138107522012,0.856610090668885,1.0),
     .UNSPECIFIED.);
#47=FACE_OUTER_BOUND('',#119,.T.);
#48=FACE_OUTER_BOUND('',#120,.T.);
#49=FACE_OUTER_BOUND('',#121,.T.);
#50=FACE_OUTER_BOUND('',#122,.T.);
#51=FACE_OUTER_BOUND('',#123,.T.);
#52=FACE_OUTER_BOUND('',#124,.T.);
#53=FACE_OUTER_BOUND('',#125,.T.);
#54=FACE_OUTER_BOUND('',#126,.T.);
#55=FACE_OUTER_BOUND('',#127,.T.);
#56=FACE_OUTER_BOUND('',#128,.T.);
#57=CONICAL_SURFACE('',#281,16.0,75.0);
#58=CONICAL_SURFACE('',#285,25.0,20.0);
#59=CONICAL_SURFACE('',#289,10.0,19.9999999999999);
#60=CONICAL_SURFACE('',#292,2.0,45.0);
#61=CONICAL_SURFACE('',#299,14.9999975642769,1.43916999999995);
#62=CONICAL_SURFACE('',#301,6.00000517228696,1.43916999999995);
#63=CONICAL_SURFACE('',#303,6.00000517228696,1.43916999999995);
#64=CONICAL_SURFACE('',#305,14.9999993910693,1.43916999999995);
#65=CONICAL_SURFACE('',#307,6.00000835704711,1.43916999999995);
#66=CONICAL_SURFACE('',#309,14.9999993910693,1.43916999999995);
#67=CYLINDRICAL_SURFACE('',#279,16.0);
#68=CYLINDRICAL_SURFACE('',#283,25.0);
#69=CYLINDRICAL_SURFACE('',#296,4.0);
#70=ADVANCED_FACE('',(#91,#92),#87,.T.);
#71=ADVANCED_FACE('',(#93,#94),#67,.T.);
#72=ADVANCED_FACE('',(#95,#96),#57,.T.);
#73=ADVANCED_FACE('',(#97,#98),#68,.T.);
#74=ADVANCED_FACE('',(#99,#100),#58,.T.);
#75=ADVANCED_FACE('',(#101,#102),#88,.T.);
#76=ADVANCED_FACE('',(#103,#104),#59,.T.);
#77=ADVANCED_FACE('',(#47),#89,.T.);
#78=ADVANCED_FACE('',(#48),#60,.F.);
#79=ADVANCED_FACE('',(#49),#69,.F.);
#80=ADVANCED_FACE('',(#50),#61,.T.);
#81=ADVANCED_FACE('',(#51),#62,.T.);
#82=ADVANCED_FACE('',(#52),#63,.T.);
#83=ADVANCED_FACE('',(#53),#64,.T.);
#84=ADVANCED_FACE('',(#54),#65,.T.);
#85=ADVANCED_FACE('',(#55),#66,.T.);
#86=ADVANCED_FACE('',(#56),#90,.T.);
#87=PLANE('',#277);
#88=PLANE('',#287);
#89=PLANE('',#290);
#90=PLANE('',#310);
#91=FACE_BOUND('',#105,.T.);
#92=FACE_BOUND('',#106,.T.);
#93=FACE_BOUND('',#107,.T.);
#94=FACE_BOUND('',#108,.T.);
#95=FACE_BOUND('',#109,.T.);
#96=FACE_BOUND('',#110,.T.);
#97=FACE_BOUND('',#111,.T.);
#98=FACE_BOUND('',#112,.T.);
#99=FACE_BOUND('',#113,.T.);
#100=FACE_BOUND('',#114,.T.);
#101=FACE_BOUND('',#115,.T.);
#102=FACE_BOUND('',#116,.T.);
#103=FACE_BOUND('',#117,.T.);
#104=FACE_BOUND('',#118,.T.);
#105=EDGE_LOOP('',(#129,#130,#131,#132,#133,#134));
#106=EDGE_LOOP('',(#135));
#107=EDGE_LOOP('',(#136));
#108=EDGE_LOOP('',(#137));
#109=EDGE_LOOP('',(#138));
#110=EDGE_LOOP('',(#139));
#111=EDGE_LOOP('',(#140));
#112=EDGE_LOOP('',(#141));
#113=EDGE_LOOP('',(#142));
#114=EDGE_LOOP('',(#143));
#115=EDGE_LOOP('',(#144));
#116=EDGE_LOOP('',(#145));
#117=EDGE_LOOP('',(#146));
#118=EDGE_LOOP('',(#147));
#119=EDGE_LOOP('',(#148));
#120=EDGE_LOOP('',(#149,#150));
#121=EDGE_LOOP('',(#151,#152,#153,#154));
#122=EDGE_LOOP('',(#155,#156,#157,#158,#159,#160,#161,#162));
#123=EDGE_LOOP('',(#163,#164,#165,#166));
#124=EDGE_LOOP('',(#167,#168,#169,#170));
#125=EDGE_LOOP('',(#171,#172,#173,#174));
#126=EDGE_LOOP('',(#175,#176,#177,#178));
#127=EDGE_LOOP('',(#179,#180,#181,#182));
#128=EDGE_LOOP('',(#183,#184,#185,#186,#187,#188,#189,#190));
#129=ORIENTED_EDGE('',*,*,#214,.F.);
#130=ORIENTED_EDGE('',*,*,#215,.F.);
#131=ORIENTED_EDGE('',*,*,#216,.F.);
#132=ORIENTED_EDGE('',*,*,#217,.F.);
#133=ORIENTED_EDGE('',*,*,#218,.F.);
#134=ORIENTED_EDGE('',*,*,#219,.F.);
#135=ORIENTED_EDGE('',*,*,#220,.T.);
#136=ORIENTED_EDGE('',*,*,#221,.T.);
#137=ORIENTED_EDGE('',*,*,#220,.F.);
#138=ORIENTED_EDGE('',*,*,#222,.T.);
#139=ORIENTED_EDGE('',*,*,#221,.F.);
#140=ORIENTED_EDGE('',*,*,#223,.T.);
#141=ORIENTED_EDGE('',*,*,#222,.F.);
#142=ORIENTED_EDGE('',*,*,#224,.T.);
#143=ORIENTED_EDGE('',*,*,#223,.F.);
#144=ORIENTED_EDGE('',*,*,#225,.T.);
#145=ORIENTED_EDGE('',*,*,#224,.F.);
#146=ORIENTED_EDGE('',*,*,#226,.T.);
#147=ORIENTED_EDGE('',*,*,#225,.F.);
#148=ORIENTED_EDGE('',*,*,#226,.F.);
#149=ORIENTED_EDGE('',*,*,#227,.T.);
#150=ORIENTED_EDGE('',*,*,#228,.F.);
#151=ORIENTED_EDGE('',*,*,#229,.F.);
#152=ORIENTED_EDGE('',*,*,#230,.F.);
#153=ORIENTED_EDGE('',*,*,#231,.F.);
#154=ORIENTED_EDGE('',*,*,#228,.T.);
#155=ORIENTED_EDGE('',*,*,#229,.T.);
#156=ORIENTED_EDGE('',*,*,#227,.F.);
#157=ORIENTED_EDGE('',*,*,#231,.T.);
#158=ORIENTED_EDGE('',*,*,#232,.T.);
#159=ORIENTED_EDGE('',*,*,#233,.F.);
#160=ORIENTED_EDGE('',*,*,#217,.T.);
#161=ORIENTED_EDGE('',*,*,#234,.T.);
#162=ORIENTED_EDGE('',*,*,#235,.T.);
#163=ORIENTED_EDGE('',*,*,#236,.T.);
#164=ORIENTED_EDGE('',*,*,#234,.F.);
#165=ORIENTED_EDGE('',*,*,#216,.T.);
#166=ORIENTED_EDGE('',*,*,#237,.T.);
#167=ORIENTED_EDGE('',*,*,#238,.T.);
#168=ORIENTED_EDGE('',*,*,#239,.F.);
#169=ORIENTED_EDGE('',*,*,#218,.T.);
#170=ORIENTED_EDGE('',*,*,#233,.T.);
#171=ORIENTED_EDGE('',*,*,#240,.T.);
#172=ORIENTED_EDGE('',*,*,#241,.F.);
#173=ORIENTED_EDGE('',*,*,#219,.T.);
#174=ORIENTED_EDGE('',*,*,#239,.T.);
#175=ORIENTED_EDGE('',*,*,#242,.T.);
#176=ORIENTED_EDGE('',*,*,#243,.F.);
#177=ORIENTED_EDGE('',*,*,#214,.T.);
#178=ORIENTED_EDGE('',*,*,#241,.T.);
#179=ORIENTED_EDGE('',*,*,#244,.T.);
#180=ORIENTED_EDGE('',*,*,#237,.F.);
#181=ORIENTED_EDGE('',*,*,#215,.T.);
#182=ORIENTED_EDGE('',*,*,#243,.T.);
#183=ORIENTED_EDGE('',*,*,#230,.T.);
#184=ORIENTED_EDGE('',*,*,#235,.F.);
#185=ORIENTED_EDGE('',*,*,#236,.F.);
#186=ORIENTED_EDGE('',*,*,#244,.F.);
#187=ORIENTED_EDGE('',*,*,#242,.F.);
#188=ORIENTED_EDGE('',*,*,#240,.F.);
#189=ORIENTED_EDGE('',*,*,#238,.F.);
#190=ORIENTED_EDGE('',*,*,#232,.F.);
#191=VERTEX_POINT('',#403);
#192=VERTEX_POINT('',#404);
#193=VERTEX_POINT('',#406);
#194=VERTEX_POINT('',#408);
#195=VERTEX_POINT('',#410);
#196=VERTEX_POINT('',#412);
#197=VERTEX_POINT('',#415);
#198=VERTEX_POINT('',#418);
#199=VERTEX_POINT('',#421);
#200=VERTEX_POINT('',#424);
#201=VERTEX_POINT('',#427);
#202=VERTEX_POINT('',#430);
#203=VERTEX_POINT('',#433);
#204=VERTEX_POINT('',#452);
#205=VERTEX_POINT('',#453);
#206=VERTEX_POINT('',#457);
#207=VERTEX_POINT('',#459);
#208=VERTEX_POINT('',#463);
#209=VERTEX_POINT('',#466);
#210=VERTEX_POINT('',#470);
#211=VERTEX_POINT('',#474);
#212=VERTEX_POINT('',#478);
#213=VERTEX_POINT('',#482);
#214=EDGE_CURVE('',#191,#192,#245,.T.);
#215=EDGE_CURVE('',#193,#191,#246,.T.);
#216=EDGE_CURVE('',#194,#193,#247,.T.);
#217=EDGE_CURVE('',#195,#194,#248,.T.);
#218=EDGE_CURVE('',#196,#195,#249,.T.);
#219=EDGE_CURVE('',#192,#196,#250,.T.);
#220=EDGE_CURVE('',#197,#197,#251,.T.);
#221=EDGE_CURVE('',#198,#198,#252,.T.);
#222=EDGE_CURVE('',#199,#199,#253,.T.);
#223=EDGE_CURVE('',#200,#200,#254,.T.);
#224=EDGE_CURVE('',#201,#201,#255,.T.);
#225=EDGE_CURVE('',#202,#202,#256,.T.);
#226=EDGE_CURVE('',#203,#203,#257,.T.);
#227=EDGE_CURVE('',#204,#205,#46,.T.);
#228=EDGE_CURVE('',#204,#205,#258,.T.);
#229=EDGE_CURVE('',#206,#205,#259,.T.);
#230=EDGE_CURVE('',#207,#206,#260,.T.);
#231=EDGE_CURVE('',#204,#207,#261,.T.);
#232=EDGE_CURVE('',#207,#208,#262,.T.);
#233=EDGE_CURVE('',#195,#208,#34,.T.);
#234=EDGE_CURVE('',#194,#209,#35,.T.);
#235=EDGE_CURVE('',#209,#206,#263,.T.);
#236=EDGE_CURVE('',#210,#209,#264,.T.);
#237=EDGE_CURVE('',#193,#210,#36,.T.);
#238=EDGE_CURVE('',#208,#211,#265,.T.);
#239=EDGE_CURVE('',#196,#211,#37,.T.);
#240=EDGE_CURVE('',#211,#212,#266,.T.);
#241=EDGE_CURVE('',#192,#212,#38,.T.);
#242=EDGE_CURVE('',#212,#213,#267,.T.);
#243=EDGE_CURVE('',#191,#213,#39,.T.);
#244=EDGE_CURVE('',#213,#210,#268,.T.);
#245=CIRCLE('',#270,6.06281720435286);
#246=CIRCLE('',#271,15.0628082383751);
#247=CIRCLE('',#272,6.06281401959271);
#248=CIRCLE('',#273,15.0628064115827);
#249=CIRCLE('',#274,6.06281401959271);
#250=CIRCLE('',#275,15.0628082383751);
#251=CIRCLE('',#276,16.0);
#252=CIRCLE('',#278,16.0);
#253=CIRCLE('',#280,25.0);
#254=CIRCLE('',#282,25.0);
#255=CIRCLE('',#284,16.9307799063183);
#256=CIRCLE('',#286,10.0);
#257=CIRCLE('',#288,7.81617859440278);
#258=CIRCLE('',#291,4.0);
#259=CIRCLE('',#293,2103.17546319548);
#260=CIRCLE('',#294,4.0);
#261=CIRCLE('',#295,2103.17546325638);
#262=CIRCLE('',#297,14.5854591720589);
#263=CIRCLE('',#298,14.5854591720589);
#264=CIRCLE('',#300,5.58546678006898);
#265=CIRCLE('',#302,5.58546678006898);
#266=CIRCLE('',#304,14.5854609988514);
#267=CIRCLE('',#306,5.58546996482912);
#268=CIRCLE('',#308,14.5854609988514);
#269=AXIS2_PLACEMENT_3D('',#401,#311,#312);
#270=AXIS2_PLACEMENT_3D('',#402,#313,#314);
#271=AXIS2_PLACEMENT_3D('',#405,#315,#316);
#272=AXIS2_PLACEMENT_3D('',#407,#317,#318);
#273=AXIS2_PLACEMENT_3D('',#409,#319,#320);
#274=AXIS2_PLACEMENT_3D('',#411,#321,#322);
#275=AXIS2_PLACEMENT_3D('',#413,#323,#324);
#276=AXIS2_PLACEMENT_3D('',#414,#325,#326);
#277=AXIS2_PLACEMENT_3D('',#416,#327,#328);
#278=AXIS2_PLACEMENT_3D('',#417,#329,#330);
#279=AXIS2_PLACEMENT_3D('',#419,#331,#332);
#280=AXIS2_PLACEMENT_3D('',#420,#333,#334);
#281=AXIS2_PLACEMENT_3D('',#422,#335,#336);
#282=AXIS2_PLACEMENT_3D('',#423,#337,#338);
#283=AXIS2_PLACEMENT_3D('',#425,#339,#340);
#284=AXIS2_PLACEMENT_3D('',#426,#341,#342);
#285=AXIS2_PLACEMENT_3D('',#428,#343,#344);
#286=AXIS2_PLACEMENT_3D('',#429,#345,#346);
#287=AXIS2_PLACEMENT_3D('',#431,#347,#348);
#288=AXIS2_PLACEMENT_3D('',#432,#349,#350);
#289=AXIS2_PLACEMENT_3D('',#434,#351,#352);
#290=AXIS2_PLACEMENT_3D('',#435,#353,#354);
#291=AXIS2_PLACEMENT_3D('',#454,#355,#356);
#292=AXIS2_PLACEMENT_3D('',#455,#357,#358);
#293=AXIS2_PLACEMENT_3D('',#456,#359,#360);
#294=AXIS2_PLACEMENT_3D('',#458,#361,#362);
#295=AXIS2_PLACEMENT_3D('',#460,#363,#364);
#296=AXIS2_PLACEMENT_3D('',#461,#365,#366);
#297=AXIS2_PLACEMENT_3D('',#462,#367,#368);
#298=AXIS2_PLACEMENT_3D('',#467,#371,#372);
#299=AXIS2_PLACEMENT_3D('',#468,#373,#374);
#300=AXIS2_PLACEMENT_3D('',#469,#375,#376);
#301=AXIS2_PLACEMENT_3D('',#472,#378,#379);
#302=AXIS2_PLACEMENT_3D('',#473,#380,#381);
#303=AXIS2_PLACEMENT_3D('',#476,#383,#384);
#304=AXIS2_PLACEMENT_3D('',#477,#385,#386);
#305=AXIS2_PLACEMENT_3D('',#480,#388,#389);
#306=AXIS2_PLACEMENT_3D('',#481,#390,#391);
#307=AXIS2_PLACEMENT_3D('',#484,#393,#394);
#308=AXIS2_PLACEMENT_3D('',#485,#395,#396);
#309=AXIS2_PLACEMENT_3D('',#486,#397,#398);
#310=AXIS2_PLACEMENT_3D('',#487,#399,#400);
#311=DIRECTION('',(0.0,0.0,1.0));
#312=DIRECTION('',(1.0,0.0,0.0));
#313=DIRECTION('',(0.0,0.0,1.0));
#314=DIRECTION('',(1.0,0.0,0.0));
#315=DIRECTION('',(0.0,0.0,1.0));
#316=DIRECTION('',(1.0,0.0,0.0));
#317=DIRECTION('',(0.0,0.0,1.0));
#318=DIRECTION('',(1.0,0.0,0.0));
#319=DIRECTION('',(0.0,0.0,1.0));
#320=DIRECTION('',(1.0,0.0,0.0));
#321=DIRECTION('',(0.0,0.0,1.0));
#322=DIRECTION('',(1.0,0.0,0.0));
#323=DIRECTION('',(0.0,0.0,1.0));
#324=DIRECTION('',(1.0,0.0,0.0));
#325=DIRECTION('',(0.0,0.0,1.0));
#326=DIRECTION('',(1.0,0.0,0.0));
#327=DIRECTION('',(0.0,0.0,1.0));
#328=DIRECTION('',(1.0,0.0,0.0));
#329=DIRECTION('',(0.0,0.0,1.0));
#330=DIRECTION('',(1.0,0.0,0.0));
#331=DIRECTION('',(0.0,0.0,1.0));
#332=DIRECTION('',(1.0,0.0,0.0));
#333=DIRECTION('',(0.0,0.0,1.0));
#334=DIRECTION('',(1.0,0.0,0.0));
#335=DIRECTION('',(0.0,0.0,-1.0));
#336=DIRECTION('',(-1.0,0.0,2.5918676037829E-17));
#337=DIRECTION('',(0.0,0.0,1.0));
#338=DIRECTION('',(1.0,0.0,0.0));
#339=DIRECTION('',(0.0,0.0,1.0));
#340=DIRECTION('',(1.0,0.0,0.0));
#341=DIRECTION('',(0.0,0.0,1.0));
#342=DIRECTION('',(1.0,0.0,0.0));
#343=DIRECTION('',(0.0,0.0,1.0));
#344=DIRECTION('',(1.0,0.0,-1.07034831346376E-16));
#345=DIRECTION('',(0.0,0.0,1.0));
#346=DIRECTION('',(1.0,0.0,0.0));
#347=DIRECTION('',(0.0,0.0,-1.0));
#348=DIRECTION('',(-1.0,0.0,0.0));
#349=DIRECTION('',(0.0,0.0,1.0));
#350=DIRECTION('',(1.0,0.0,0.0));
#351=DIRECTION('',(0.0,0.0,1.0));
#352=DIRECTION('',(1.0,0.0,7.42186759063606E-17));
#353=DIRECTION('',(0.0,0.0,-1.0));
#354=DIRECTION('',(-1.0,0.0,0.0));
#355=DIRECTION('',(0.0,0.0,-1.0));
#356=DIRECTION('',(-1.61726194475907E-13,1.0,0.0));
#357=DIRECTION('',(0.0,0.0,1.0));
#358=DIRECTION('',(0.0,-1.0,-6.05941333924034E-17));
#359=DIRECTION('',(-0.0732505293981271,0.997052233161759,-0.0228298990370784));
#360=DIRECTION('',(0.996878841868759,0.0738752372038326,0.0278392521896502));
#361=DIRECTION('',(0.0,-6.12303176911189E-17,-1.0));
#362=DIRECTION('',(-1.61726194475907E-13,1.0,0.0));
#363=DIRECTION('',(0.0732505293384454,0.997052233166181,-0.0228298990354594));
#364=DIRECTION('',(-0.996924503956327,0.0738421201572323,0.0262464226536937));
#365=DIRECTION('',(0.0,0.0,-1.0));
#366=DIRECTION('',(0.0,1.0,0.0));
#367=DIRECTION('',(0.0,-6.12303176911189E-17,-1.0));
#368=DIRECTION('',(0.0,-1.0,0.0));
#369=DIRECTION('',(0.0137754746237107,0.0210007227156388,0.99968455321882));
#370=DIRECTION('',(-0.0137754810594535,0.0210007184940963,0.99968455321882));
#371=DIRECTION('',(0.0,-6.12303176911189E-17,-1.0));
#372=DIRECTION('',(0.0,-1.0,0.0));
#373=DIRECTION('',(0.0,0.0,-1.0));
#374=DIRECTION('',(0.0,1.0,-1.32946274324873E-15));
#375=DIRECTION('',(0.0,-6.12303176911189E-17,-1.0));
#376=DIRECTION('',(0.866025250557684,-0.500000265396431,0.0));
#377=DIRECTION('',(-0.0250748958052459,0.00142956498407764,0.99968455321882));
#378=DIRECTION('',(0.0,0.0,-1.0));
#379=DIRECTION('',(0.0,1.0,-1.71390336281022E-15));
#380=DIRECTION('',(0.0,-6.12303176911189E-17,-1.0));
#381=DIRECTION('',(-0.866025250557684,-0.500000265396431,0.0));
#382=DIRECTION('',(0.025074896142823,0.00142955906288819,0.99968455321882));
#383=DIRECTION('',(0.0,0.0,-1.0));
#384=DIRECTION('',(0.0,1.0,-1.71390336281022E-15));
#385=DIRECTION('',(0.0,-6.12303176911189E-17,-1.0));
#386=DIRECTION('',(-0.866025438941074,0.499999939106917,0.0));
#387=DIRECTION('',(0.011299415183886,-0.0224302757938864,0.99968455321882));
#388=DIRECTION('',(0.0,0.0,-1.0));
#389=DIRECTION('',(0.0,1.0,-1.32946268271937E-15));
#390=DIRECTION('',(0.0,-6.12303176911189E-17,-1.0));
#391=DIRECTION('',(0.0,1.0,0.0));
#392=DIRECTION('',(-0.0112994167610325,-0.0224302749993875,0.99968455321882));
#393=DIRECTION('',(0.0,0.0,-1.0));
#394=DIRECTION('',(0.0,1.0,-1.71390318743268E-15));
#395=DIRECTION('',(0.0,-6.12303176911189E-17,-1.0));
#396=DIRECTION('',(0.866025438941074,0.499999939106917,0.0));
#397=DIRECTION('',(0.0,0.0,-1.0));
#398=DIRECTION('',(0.0,1.0,-1.32946268271937E-15));
#399=DIRECTION('',(0.0,6.12303176911189E-17,1.0));
#400=DIRECTION('',(0.0,-1.0,6.24500451351651E-17));
#401=CARTESIAN_POINT('',(0.0,0.0,0.0));
#402=CARTESIAN_POINT('',(0.0,5.69999693755837,0.0));
#403=CARTESIAN_POINT('',(2.72763808621137,11.1145830643131,0.0));
#404=CARTESIAN_POINT('',(-2.72763808621141,11.1145830643132,0.0));
#405=CARTESIAN_POINT('',(-4.04906126847029,-2.33772297897611,0.0));
#406=CARTESIAN_POINT('',(10.9893271560567,-3.19508265793908,0.0));
#407=CARTESIAN_POINT('',(4.9363421661785,-2.84999346877931,0.0));
#408=CARTESIAN_POINT('',(8.26169214283496,-7.91948667509894,0.0));
#409=CARTESIAN_POINT('',(0.0,4.67545595795221,0.0));
#410=CARTESIAN_POINT('',(-8.26169214283496,-7.91948667509894,0.0));
#411=CARTESIAN_POINT('',(-4.9363421661785,-2.84999346877931,0.0));
#412=CARTESIAN_POINT('',(-10.9893271560569,-3.19508265793909,0.0));
#413=CARTESIAN_POINT('',(4.04906126847029,-2.33772297897611,0.0));
#414=CARTESIAN_POINT('',(0.0,-1.77635683940025E-15,0.0));
#415=CARTESIAN_POINT('',(16.0,-1.77635683940025E-15,0.0));
#416=CARTESIAN_POINT('',(0.0,11.7628141419112,0.0));
#417=CARTESIAN_POINT('',(0.0,-1.77635683940025E-15,-15.0));
#418=CARTESIAN_POINT('',(16.0,-1.77635683940025E-15,-15.0));
#419=CARTESIAN_POINT('',(0.0,-1.77635683940025E-15,-102.0));
#420=CARTESIAN_POINT('',(0.0,-1.77635683940025E-15,-17.4115427318801));
#421=CARTESIAN_POINT('',(25.0,-1.77635683940025E-15,-17.4115427318801));
#422=CARTESIAN_POINT('',(0.0,-1.77635683940025E-15,-15.0));
#423=CARTESIAN_POINT('',(0.0,-1.77635683940025E-15,-73.83));
#424=CARTESIAN_POINT('',(25.0,-1.77635683940025E-15,-73.83));
#425=CARTESIAN_POINT('',(0.0,-1.77635683940025E-15,-102.0));
#426=CARTESIAN_POINT('',(0.0,-1.77635683940025E-15,-96.0));
#427=CARTESIAN_POINT('',(16.9307799063183,-1.77635683940025E-15,-96.0));
#428=CARTESIAN_POINT('',(0.0,-1.77635683940025E-15,-73.83));
#429=CARTESIAN_POINT('',(0.0,-1.77635683940025E-15,-96.0));
#430=CARTESIAN_POINT('',(10.0,-1.77635683940025E-15,-96.0));
#431=CARTESIAN_POINT('',(0.0,16.9307799063183,-96.0));
#432=CARTESIAN_POINT('',(0.0,-1.77635683940025E-15,-102.0));
#433=CARTESIAN_POINT('',(7.81617859440278,-1.77635683940025E-15,-102.0));
#434=CARTESIAN_POINT('',(0.0,-1.77635683940025E-15,-96.0));
#435=CARTESIAN_POINT('',(0.0,7.81617859440279,-102.0));
#436=CARTESIAN_POINT('',(-2.39618594710315,-9.79714315516606,15.6499998826993));
#437=CARTESIAN_POINT('',(-2.00331706586387,-9.86966123917775,15.3565868818623));
#438=CARTESIAN_POINT('',(-1.58609305719906,-9.92963474506907,15.0813482439243));
#439=CARTESIAN_POINT('',(-1.13267427602296,-9.96964756094265,14.8851177599069));
#440=CARTESIAN_POINT('',(-0.855149994545181,-9.99413822704697,14.7650108601889));
#441=CARTESIAN_POINT('',(-0.5580224768126,-10.0111457313543,14.6756611881022));
#442=CARTESIAN_POINT('',(-0.256372902304339,-10.0172101330404,14.6437873096586));
#443=CARTESIAN_POINT('',(0.047713317483211,-10.0233235213552,14.6116559624765));
#444=CARTESIAN_POINT('',(0.362692648671174,-10.0180309873281,14.640379141724));
#445=CARTESIAN_POINT('',(0.657983785736782,-10.0028281344431,14.7185471894658));
#446=CARTESIAN_POINT('',(1.05245684315844,-9.98251897136194,14.8229701975242));
#447=CARTESIAN_POINT('',(1.42486703970433,-9.94513730565818,15.0094394005888));
#448=CARTESIAN_POINT('',(1.77057991108107,-9.89775631386738,15.2219559221348));
#449=CARTESIAN_POINT('',(1.98625929613979,-9.86819680359455,15.3545382946085));
#450=CARTESIAN_POINT('',(2.19416002008496,-9.83443318757348,15.4991183190899));
#451=CARTESIAN_POINT('',(2.39618413087777,-9.79714239142311,15.6499994062363));
#452=CARTESIAN_POINT('',(-2.39618594710315,-9.79714315516606,15.6499998826993));
#453=CARTESIAN_POINT('',(2.39618413087777,-9.79714239142311,15.6499994062363));
#454=CARTESIAN_POINT('',(0.0,-13.0,15.65));
#455=CARTESIAN_POINT('',(0.0,-13.0,13.65));
#456=CARTESIAN_POINT('',(-2094.31096897581,-165.100078733755,-39.5508321189835));
#457=CARTESIAN_POINT('',(2.30015102129197,-9.72749250890858,19.0));
#458=CARTESIAN_POINT('',(0.0,-13.0,19.0));
#459=CARTESIAN_POINT('',(-2.30015102129197,-9.72749250890858,19.0));
#460=CARTESIAN_POINT('',(2094.31096904575,-165.100078612714,-39.550832123505));
#461=CARTESIAN_POINT('',(0.0,-13.0,19.0));
#462=CARTESIAN_POINT('',(0.0,4.67545595795221,19.0));
#463=CARTESIAN_POINT('',(-7.9998729465036,-7.52034873462951,19.0));
#464=CARTESIAN_POINT('',(-8.22724,-7.86697,2.5));
#465=CARTESIAN_POINT('',(8.22724,-7.86697,2.5));
#466=CARTESIAN_POINT('',(7.99987284028034,-7.52034880430694,19.0));
#467=CARTESIAN_POINT('',(0.0,4.67545595795221,19.0));
#468=CARTESIAN_POINT('',(0.0,4.67545595795221,2.5));
#469=CARTESIAN_POINT('',(4.9363421661785,-2.84999346877931,19.0));
#470=CARTESIAN_POINT('',(10.5127536664107,-3.16791473471223,19.0));
#471=CARTESIAN_POINT('',(10.92662,-3.19151,2.5));
#472=CARTESIAN_POINT('',(4.9363421661785,-2.84999346877931,2.5));
#473=CARTESIAN_POINT('',(-4.9363421661785,-2.84999346877931,19.0));
#474=CARTESIAN_POINT('',(-10.5127536608389,-3.16791483244269,19.0));
#475=CARTESIAN_POINT('',(-10.92662,-3.19151,2.5));
#476=CARTESIAN_POINT('',(-4.9363421661785,-2.84999346877931,2.5));
#477=CARTESIAN_POINT('',(4.04906126847029,-2.33772297897611,19.0));
#478=CARTESIAN_POINT('',(-2.51288081889951,10.6882736658499,19.0));
#479=CARTESIAN_POINT('',(-2.69938,11.05849,2.5));
#480=CARTESIAN_POINT('',(4.04906126847029,-2.33772297897611,2.5));
#481=CARTESIAN_POINT('',(0.0,5.69999693755836,19.0));
#482=CARTESIAN_POINT('',(2.51288079286838,10.6882736789633,19.0));
#483=CARTESIAN_POINT('',(2.69938,11.05849,2.5));
#484=CARTESIAN_POINT('',(0.0,5.69999693755837,2.5));
#485=CARTESIAN_POINT('',(-4.04906126847029,-2.33772297897611,19.0));
#486=CARTESIAN_POINT('',(-4.04906126847029,-2.33772297897611,2.5));
#487=CARTESIAN_POINT('',(0.0,4.11258836697792E-6,19.0));
#488=MECHANICAL_DESIGN_GEOMETRIC_PRESENTATION_REPRESENTATION('',(#24),#489);
#489=(GEOMETRIC_REPRESENTATION_CONTEXT(3)GLOBAL_UNCERTAINTY_ASSIGNED_CONTEXT((#490))
     GLOBAL_UNIT_ASSIGNED_CONTEXT((#496,#492,#491))REPRESENTATION_CONTEXT('C3-391',
     'TOP_LEVEL_ASSEMBLY_PART'));
#490=UNCERTAINTY_MEASURE_WITH_UNIT(LENGTH_MEASURE(0.0508),#496,'DISTANCE_ACCURACY_VALUE',
     'Maximum Tolerance applied to model');
#491=(NAMED_UNIT(*)SI_UNIT($,.STERADIAN.)SOLID_ANGLE_UNIT());
#492=(CONVERSION_BASED_UNIT('DEGREE',#494)NAMED_UNIT(*)PLANE_ANGLE_UNIT());
#493=DIMENSIONAL_EXPONENTS(0.0,0.0,0.0,0.0,0.0,0.0,0.0);
#494=PLANE_ANGLE_MEASURE_WITH_UNIT(PLANE_ANGLE_MEASURE(0.0174532925),#495);
#495=(NAMED_UNIT(*)PLANE_ANGLE_UNIT()SI_UNIT($,.RADIAN.));
#496=(LENGTH_UNIT()NAMED_UNIT(*)SI_UNIT(.MILLI.,.METRE.));
#497=CARTESIAN_POINT('',(0.0,0.0,0.0));
#498=DIRECTION('',(0.0,0.0,1.0));
#499=DIRECTION('',(1.0,0.0,0.0));
#500=AXIS2_PLACEMENT_3D('PCS',#497,#498,#499);
#501=CARTESIAN_POINT('',(0.0,0.0,0.0));
#502=DIRECTION('',(0.0,0.0,1.0));
#503=DIRECTION('',(1.0,0.0,0.0));
#504=AXIS2_PLACEMENT_3D('MCS',#501,#502,#503);
#505=CARTESIAN_POINT('',(0.0,0.0,-96.0));
#506=DIRECTION('',(0.0,0.0,1.0));
#507=DIRECTION('',(1.0,0.0,0.0));
#508=AXIS2_PLACEMENT_3D('CSW',#505,#506,#507);
#509=CONSTRUCTIVE_GEOMETRY_REPRESENTATION('supplemental geometry',(#500,#504,#508),
     #489);
#510=CONSTRUCTIVE_GEOMETRY_REPRESENTATION_RELATIONSHIP('supplemental geometry',$,
     #22,#509);
ENDSEC;
END-ISO-10303-21;
