ISO-10303-21;
HEADER;
FILE_DESCRIPTION(
/* description */ ('3-D model version:1'),
/* implementation_level */ '2;1');
FILE_NAME(
/* name */ 'AEH20-A18.7-SS-110',
/* time_stamp */ '2016-12-02T14:02:42',
/* author */ ('InteractiveCad'),
/* organization */ ('AB Sandvik Coromant'),
/* preprocessor_version */ 'ST-DEVELOPER v15',
/* originating_system */ 'SIEMENS PLM Software NX 8.5',
/* authorization */ '');
FILE_SCHEMA(('AUTOMOTIVE_DESIGN'));
ENDSEC;
DATA;
#10=SHAPE_REPRESENTATION_RELATIONSHIP('None','relationship between AEH20-A18.7-SS-110-635461140594907096-1-None and AEH20-A18.7-SS-110-635461140594907096-1-None',
     #92,#11);
#11=ADVANCED_BREP_SHAPE_REPRESENTATION('AEH20-A18.7-SS-110-635461140594907096-1-None',
     (#102),#539);
#15=APPROVAL_PERSON_ORGANIZATION(#69,#24,#18);
#16=APPROVAL_PERSON_ORGANIZATION(#70,#25,#19);
#17=APPROVAL_PERSON_ORGANIZATION(#71,#26,#20);
#18=APPROVAL_ROLE('approver');
#19=APPROVAL_ROLE('approver');
#20=APPROVAL_ROLE('approver');
#21=APPROVAL_DATE_TIME(#39,#24);
#22=APPROVAL_DATE_TIME(#40,#25);
#23=APPROVAL_DATE_TIME(#41,#26);
#24=APPROVAL(#27,' ');
#25=APPROVAL(#28,' ');
#26=APPROVAL(#29,' ');
#27=APPROVAL_STATUS('not_yet_approved');
#28=APPROVAL_STATUS('not_yet_approved');
#29=APPROVAL_STATUS('not_yet_approved');
#31=SECURITY_CLASSIFICATION(' ',' ',#32);
#32=SECURITY_CLASSIFICATION_LEVEL('confidential');
#35=DATE_TIME_ROLE('creation_date');
#36=DATE_TIME_ROLE('classification_date');
#37=DATE_AND_TIME(#52,#42);
#38=DATE_AND_TIME(#53,#43);
#39=DATE_AND_TIME(#54,#44);
#40=DATE_AND_TIME(#55,#45);
#41=DATE_AND_TIME(#56,#46);
#42=LOCAL_TIME(0,0,0.0,#47);
#43=LOCAL_TIME(0,0,0.0,#48);
#44=LOCAL_TIME(0,0,0.0,#49);
#45=LOCAL_TIME(0,0,0.0,#50);
#46=LOCAL_TIME(0,0,0.0,#51);
#47=COORDINATED_UNIVERSAL_TIME_OFFSET(0,0,.BEHIND.);
#48=COORDINATED_UNIVERSAL_TIME_OFFSET(0,0,.BEHIND.);
#49=COORDINATED_UNIVERSAL_TIME_OFFSET(0,0,.BEHIND.);
#50=COORDINATED_UNIVERSAL_TIME_OFFSET(0,0,.BEHIND.);
#51=COORDINATED_UNIVERSAL_TIME_OFFSET(0,0,.BEHIND.);
#52=CALENDAR_DATE(0,1,1);
#53=CALENDAR_DATE(0,1,1);
#54=CALENDAR_DATE(0,1,1);
#55=CALENDAR_DATE(0,1,1);
#56=CALENDAR_DATE(0,1,1);
#61=PERSON_AND_ORGANIZATION_ROLE('creator');
#62=PERSON_AND_ORGANIZATION_ROLE('design_owner');
#63=PERSON_AND_ORGANIZATION_ROLE('design_supplier');
#64=PERSON_AND_ORGANIZATION_ROLE('classification_officer');
#65=PERSON_AND_ORGANIZATION(#79,#72);
#66=PERSON_AND_ORGANIZATION(#79,#73);
#67=PERSON_AND_ORGANIZATION(#79,#74);
#68=PERSON_AND_ORGANIZATION(#79,#75);
#69=PERSON_AND_ORGANIZATION(#79,#76);
#70=PERSON_AND_ORGANIZATION(#79,#77);
#71=PERSON_AND_ORGANIZATION(#79,#78);
#72=ORGANIZATION(' ',' ',' ');
#73=ORGANIZATION(' ',' ',' ');
#74=ORGANIZATION(' ',' ',' ');
#75=ORGANIZATION(' ',' ',' ');
#76=ORGANIZATION(' ',' ',' ');
#77=ORGANIZATION(' ',' ',' ');
#78=ORGANIZATION(' ',' ',' ');
#79=PERSON(' ',' ',' ',(' '),$,$);
#80=SHAPE_DEFINITION_REPRESENTATION(#81,#92);
#81=PRODUCT_DEFINITION_SHAPE('','',#82);
#82=PRODUCT_DEFINITION(' ','',#84,$);
#84=PRODUCT_DEFINITION_FORMATION_WITH_SPECIFIED_SOURCE(' ',' ',#86,.NOT_KNOWN.);
#85=PRODUCT_RELATED_PRODUCT_CATEGORY('detail','',(#86));
#86=PRODUCT('AEH20-A18.7-SS-110-635461140594907096-1','AEH20-A18.7-SS-110-635461140594907096-1',
     ' ',());
#87=PRODUCT_CATEGORY('part',' ');
#88=PRODUCT_CATEGORY(' ','');
#90=APPLICATION_PROTOCOL_DEFINITION('international standard','config_control_design',
     2010,#91);
#91=APPLICATION_CONTEXT('configuration controlled 3D designs of mechanical parts and assemblies');
#92=SHAPE_REPRESENTATION('AEH20-A18.7-SS-110-635461140594907096-1-None',(#340),#539);
#93=PRESENTATION_LAYER_ASSIGNMENT('1','Layer 1',(#102));
#94=STYLED_ITEM('',(#95),#102);
#95=PRESENTATION_STYLE_ASSIGNMENT((#96));
#96=SURFACE_STYLE_USAGE(.BOTH.,#97);
#97=SURFACE_SIDE_STYLE('',(#98));
#98=SURFACE_STYLE_FILL_AREA(#99);
#99=FILL_AREA_STYLE('',(#100));
#100=FILL_AREA_STYLE_COLOUR('',#101);
#101=COLOUR_RGB('TLS_NOCUT',0.499992370489052,0.499992370489052,0.499992370489052);
#102=MANIFOLD_SOLID_BREP('NOCUT',#103);
#103=CLOSED_SHELL('',(#124,#125,#126,#127,#128,#129,#130,#131,#132,#133,#134,#135,
     #136,#137,#138,#139,#140,#141,#142,#143,#144,#145));
#104=VERTEX_LOOP('',#285);
#105=FACE_OUTER_BOUND('',#204,.T.);
#106=PLANE('',#353);
#107=PLANE('',#355);
#108=CONICAL_SURFACE('',#347,9.20480618370423,8.89085715979058);
#109=CONICAL_SURFACE('',#356,8.34675,45.0000000000001);
#110=CONICAL_SURFACE('',#358,0.0,59.0);
#111=CONICAL_SURFACE('',#364,4.95554072893323,80.0000000000007);
#112=CONICAL_SURFACE('',#368,5.77120549174436,69.9999999999998);
#113=CONICAL_SURFACE('',#372,5.28680918566302,5.99999999999999);
#114=CONICAL_SURFACE('',#374,6.2153,70.0000000000001);
#115=CONICAL_SURFACE('',#382,7.25769807627063,2.0);
#116=CONICAL_SURFACE('',#383,7.32404753830495,46.9999999999999);
#117=TOROIDAL_SURFACE('',#345,8.94675,0.400000000000004);
#118=TOROIDAL_SURFACE('',#349,9.6,0.399999999999995);
#119=TOROIDAL_SURFACE('',#362,5.025,0.4);
#120=TOROIDAL_SURFACE('',#366,5.32657930542099,1.3);
#121=TOROIDAL_SURFACE('',#370,5.68461794381033,0.4);
#122=TOROIDAL_SURFACE('',#376,6.85769807627063,0.5);
#123=TOROIDAL_SURFACE('',#380,6.85769807627063,0.500000000000001);
#124=ADVANCED_FACE('FP_EH_SU1',(#150,#151),#146,.T.);
#125=ADVANCED_FACE('',(#152,#153),#117,.T.);
#126=ADVANCED_FACE('FP_EH_SU2',(#154,#155),#108,.T.);
#127=ADVANCED_FACE('',(#156,#157),#118,.F.);
#128=ADVANCED_FACE('FP_EH_SU3',(#158,#159),#147,.T.);
#129=ADVANCED_FACE('FP_EH_SU4',(#160,#161),#106,.T.);
#130=ADVANCED_FACE('',(#105),#107,.F.);
#131=ADVANCED_FACE('',(#162,#163),#109,.T.);
#132=ADVANCED_FACE('',(#164,#165),#110,.F.);
#133=ADVANCED_FACE('DCH3',(#166,#167),#148,.F.);
#134=ADVANCED_FACE('',(#168,#169),#119,.T.);
#135=ADVANCED_FACE('',(#170,#171),#111,.F.);
#136=ADVANCED_FACE('',(#172,#173),#120,.F.);
#137=ADVANCED_FACE('',(#174,#175),#112,.F.);
#138=ADVANCED_FACE('',(#176,#177),#121,.T.);
#139=ADVANCED_FACE('TSALN',(#178,#179),#113,.F.);
#140=ADVANCED_FACE('',(#180,#181),#114,.F.);
#141=ADVANCED_FACE('',(#182,#183),#122,.F.);
#142=ADVANCED_FACE('DCH2',(#184,#185),#149,.F.);
#143=ADVANCED_FACE('',(#186,#187),#123,.F.);
#144=ADVANCED_FACE('TSAN',(#188,#189),#115,.F.);
#145=ADVANCED_FACE('DCH4',(#190,#191),#116,.F.);
#146=CYLINDRICAL_SURFACE('',#343,9.34675);
#147=CYLINDRICAL_SURFACE('',#351,9.2);
#148=CYLINDRICAL_SURFACE('',#360,4.625);
#149=CYLINDRICAL_SURFACE('',#378,7.35769807627063);
#150=FACE_BOUND('',#192,.T.);
#151=FACE_BOUND('',#193,.T.);
#152=FACE_BOUND('',#194,.T.);
#153=FACE_BOUND('',#195,.T.);
#154=FACE_BOUND('',#196,.T.);
#155=FACE_BOUND('',#197,.T.);
#156=FACE_BOUND('',#198,.T.);
#157=FACE_BOUND('',#199,.T.);
#158=FACE_BOUND('',#200,.T.);
#159=FACE_BOUND('',#201,.T.);
#160=FACE_BOUND('',#202,.T.);
#161=FACE_BOUND('',#203,.T.);
#162=FACE_BOUND('',#205,.T.);
#163=FACE_BOUND('',#206,.T.);
#164=FACE_BOUND('',#207,.T.);
#165=FACE_BOUND('',#104,.T.);
#166=FACE_BOUND('',#208,.T.);
#167=FACE_BOUND('',#209,.T.);
#168=FACE_BOUND('',#210,.T.);
#169=FACE_BOUND('',#211,.T.);
#170=FACE_BOUND('',#212,.T.);
#171=FACE_BOUND('',#213,.T.);
#172=FACE_BOUND('',#214,.T.);
#173=FACE_BOUND('',#215,.T.);
#174=FACE_BOUND('',#216,.T.);
#175=FACE_BOUND('',#217,.T.);
#176=FACE_BOUND('',#218,.T.);
#177=FACE_BOUND('',#219,.T.);
#178=FACE_BOUND('',#220,.T.);
#179=FACE_BOUND('',#221,.T.);
#180=FACE_BOUND('',#222,.T.);
#181=FACE_BOUND('',#223,.T.);
#182=FACE_BOUND('',#224,.T.);
#183=FACE_BOUND('',#225,.T.);
#184=FACE_BOUND('',#226,.T.);
#185=FACE_BOUND('',#227,.T.);
#186=FACE_BOUND('',#228,.T.);
#187=FACE_BOUND('',#229,.T.);
#188=FACE_BOUND('',#230,.T.);
#189=FACE_BOUND('',#231,.T.);
#190=FACE_BOUND('',#232,.T.);
#191=FACE_BOUND('',#233,.T.);
#192=EDGE_LOOP('',(#234));
#193=EDGE_LOOP('',(#235));
#194=EDGE_LOOP('',(#236));
#195=EDGE_LOOP('',(#237));
#196=EDGE_LOOP('',(#238));
#197=EDGE_LOOP('',(#239));
#198=EDGE_LOOP('',(#240));
#199=EDGE_LOOP('',(#241));
#200=EDGE_LOOP('',(#242));
#201=EDGE_LOOP('',(#243));
#202=EDGE_LOOP('',(#244));
#203=EDGE_LOOP('',(#245));
#204=EDGE_LOOP('',(#246));
#205=EDGE_LOOP('',(#247));
#206=EDGE_LOOP('',(#248));
#207=EDGE_LOOP('',(#249));
#208=EDGE_LOOP('',(#250));
#209=EDGE_LOOP('',(#251));
#210=EDGE_LOOP('',(#252));
#211=EDGE_LOOP('',(#253));
#212=EDGE_LOOP('',(#254));
#213=EDGE_LOOP('',(#255));
#214=EDGE_LOOP('',(#256));
#215=EDGE_LOOP('',(#257));
#216=EDGE_LOOP('',(#258));
#217=EDGE_LOOP('',(#259));
#218=EDGE_LOOP('',(#260));
#219=EDGE_LOOP('',(#261));
#220=EDGE_LOOP('',(#262));
#221=EDGE_LOOP('',(#263));
#222=EDGE_LOOP('',(#264));
#223=EDGE_LOOP('',(#265));
#224=EDGE_LOOP('',(#266));
#225=EDGE_LOOP('',(#267));
#226=EDGE_LOOP('',(#268));
#227=EDGE_LOOP('',(#269));
#228=EDGE_LOOP('',(#270));
#229=EDGE_LOOP('',(#271));
#230=EDGE_LOOP('',(#272));
#231=EDGE_LOOP('',(#273));
#232=EDGE_LOOP('',(#274));
#233=EDGE_LOOP('',(#275));
#234=ORIENTED_EDGE('',*,*,#298,.F.);
#235=ORIENTED_EDGE('',*,*,#299,.T.);
#236=ORIENTED_EDGE('',*,*,#298,.T.);
#237=ORIENTED_EDGE('',*,*,#300,.F.);
#238=ORIENTED_EDGE('',*,*,#300,.T.);
#239=ORIENTED_EDGE('',*,*,#301,.F.);
#240=ORIENTED_EDGE('',*,*,#301,.T.);
#241=ORIENTED_EDGE('',*,*,#302,.F.);
#242=ORIENTED_EDGE('',*,*,#302,.T.);
#243=ORIENTED_EDGE('',*,*,#303,.F.);
#244=ORIENTED_EDGE('',*,*,#304,.F.);
#245=ORIENTED_EDGE('',*,*,#303,.T.);
#246=ORIENTED_EDGE('',*,*,#305,.F.);
#247=ORIENTED_EDGE('',*,*,#299,.F.);
#248=ORIENTED_EDGE('',*,*,#305,.T.);
#249=ORIENTED_EDGE('',*,*,#306,.T.);
#250=ORIENTED_EDGE('',*,*,#307,.T.);
#251=ORIENTED_EDGE('',*,*,#306,.F.);
#252=ORIENTED_EDGE('',*,*,#308,.T.);
#253=ORIENTED_EDGE('',*,*,#307,.F.);
#254=ORIENTED_EDGE('',*,*,#309,.T.);
#255=ORIENTED_EDGE('',*,*,#308,.F.);
#256=ORIENTED_EDGE('',*,*,#310,.T.);
#257=ORIENTED_EDGE('',*,*,#309,.F.);
#258=ORIENTED_EDGE('',*,*,#311,.T.);
#259=ORIENTED_EDGE('',*,*,#310,.F.);
#260=ORIENTED_EDGE('',*,*,#312,.T.);
#261=ORIENTED_EDGE('',*,*,#311,.F.);
#262=ORIENTED_EDGE('',*,*,#313,.T.);
#263=ORIENTED_EDGE('',*,*,#312,.F.);
#264=ORIENTED_EDGE('',*,*,#314,.T.);
#265=ORIENTED_EDGE('',*,*,#313,.F.);
#266=ORIENTED_EDGE('',*,*,#315,.T.);
#267=ORIENTED_EDGE('',*,*,#314,.F.);
#268=ORIENTED_EDGE('',*,*,#316,.T.);
#269=ORIENTED_EDGE('',*,*,#315,.F.);
#270=ORIENTED_EDGE('',*,*,#317,.T.);
#271=ORIENTED_EDGE('',*,*,#316,.F.);
#272=ORIENTED_EDGE('',*,*,#318,.T.);
#273=ORIENTED_EDGE('',*,*,#317,.F.);
#274=ORIENTED_EDGE('',*,*,#304,.T.);
#275=ORIENTED_EDGE('',*,*,#318,.F.);
#276=VERTEX_POINT('',#474);
#277=VERTEX_POINT('',#476);
#278=VERTEX_POINT('',#479);
#279=VERTEX_POINT('',#482);
#280=VERTEX_POINT('',#485);
#281=VERTEX_POINT('',#488);
#282=VERTEX_POINT('',#491);
#283=VERTEX_POINT('',#494);
#284=VERTEX_POINT('',#498);
#285=VERTEX_POINT('',#499);
#286=VERTEX_POINT('',#502);
#287=VERTEX_POINT('',#505);
#288=VERTEX_POINT('',#508);
#289=VERTEX_POINT('',#511);
#290=VERTEX_POINT('',#514);
#291=VERTEX_POINT('',#517);
#292=VERTEX_POINT('',#520);
#293=VERTEX_POINT('',#523);
#294=VERTEX_POINT('',#526);
#295=VERTEX_POINT('',#529);
#296=VERTEX_POINT('',#532);
#297=VERTEX_POINT('',#535);
#298=EDGE_CURVE('',#276,#276,#319,.T.);
#299=EDGE_CURVE('',#277,#277,#320,.T.);
#300=EDGE_CURVE('',#278,#278,#321,.T.);
#301=EDGE_CURVE('',#279,#279,#322,.T.);
#302=EDGE_CURVE('',#280,#280,#323,.T.);
#303=EDGE_CURVE('',#281,#281,#324,.T.);
#304=EDGE_CURVE('',#282,#282,#325,.T.);
#305=EDGE_CURVE('',#283,#283,#326,.T.);
#306=EDGE_CURVE('',#284,#284,#327,.T.);
#307=EDGE_CURVE('',#286,#286,#328,.T.);
#308=EDGE_CURVE('',#287,#287,#329,.T.);
#309=EDGE_CURVE('',#288,#288,#330,.T.);
#310=EDGE_CURVE('',#289,#289,#331,.T.);
#311=EDGE_CURVE('',#290,#290,#332,.T.);
#312=EDGE_CURVE('',#291,#291,#333,.T.);
#313=EDGE_CURVE('',#292,#292,#334,.T.);
#314=EDGE_CURVE('',#293,#293,#335,.T.);
#315=EDGE_CURVE('',#294,#294,#336,.T.);
#316=EDGE_CURVE('',#295,#295,#337,.T.);
#317=EDGE_CURVE('',#296,#296,#338,.T.);
#318=EDGE_CURVE('',#297,#297,#339,.T.);
#319=CIRCLE('',#341,9.34675000000001);
#320=CIRCLE('',#342,9.34675);
#321=CIRCLE('',#344,9.34194381629578);
#322=CIRCLE('',#346,9.20480618370423);
#323=CIRCLE('',#348,9.2);
#324=CIRCLE('',#350,9.2);
#325=CIRCLE('',#352,7.96746876431976);
#326=CIRCLE('',#354,8.34675);
#327=CIRCLE('',#357,4.625);
#328=CIRCLE('',#359,4.625);
#329=CIRCLE('',#361,4.95554072893323);
#330=CIRCLE('',#363,5.552321936388);
#331=CIRCLE('',#365,5.77120549174436);
#332=CIRCLE('',#367,5.54780988648006);
#333=CIRCLE('',#369,5.28680918566302);
#334=CIRCLE('',#371,6.2153);
#335=CIRCLE('',#373,7.02870814793346);
#336=CIRCLE('',#375,7.35769807627063);
#337=CIRCLE('',#377,7.35769807627063);
#338=CIRCLE('',#379,7.25769807627063);
#339=CIRCLE('',#381,7.32404753830495);
#340=AXIS2_PLACEMENT_3D('',#472,#384,#385);
#341=AXIS2_PLACEMENT_3D('',#473,#386,#387);
#342=AXIS2_PLACEMENT_3D('',#475,#388,#389);
#343=AXIS2_PLACEMENT_3D('',#477,#390,#391);
#344=AXIS2_PLACEMENT_3D('',#478,#392,#393);
#345=AXIS2_PLACEMENT_3D('',#480,#394,#395);
#346=AXIS2_PLACEMENT_3D('',#481,#396,#397);
#347=AXIS2_PLACEMENT_3D('',#483,#398,#399);
#348=AXIS2_PLACEMENT_3D('',#484,#400,#401);
#349=AXIS2_PLACEMENT_3D('',#486,#402,#403);
#350=AXIS2_PLACEMENT_3D('',#487,#404,#405);
#351=AXIS2_PLACEMENT_3D('',#489,#406,#407);
#352=AXIS2_PLACEMENT_3D('',#490,#408,#409);
#353=AXIS2_PLACEMENT_3D('',#492,#410,#411);
#354=AXIS2_PLACEMENT_3D('',#493,#412,#413);
#355=AXIS2_PLACEMENT_3D('',#495,#414,#415);
#356=AXIS2_PLACEMENT_3D('',#496,#416,#417);
#357=AXIS2_PLACEMENT_3D('',#497,#418,#419);
#358=AXIS2_PLACEMENT_3D('',#500,#420,#421);
#359=AXIS2_PLACEMENT_3D('',#501,#422,#423);
#360=AXIS2_PLACEMENT_3D('',#503,#424,#425);
#361=AXIS2_PLACEMENT_3D('',#504,#426,#427);
#362=AXIS2_PLACEMENT_3D('',#506,#428,#429);
#363=AXIS2_PLACEMENT_3D('',#507,#430,#431);
#364=AXIS2_PLACEMENT_3D('',#509,#432,#433);
#365=AXIS2_PLACEMENT_3D('',#510,#434,#435);
#366=AXIS2_PLACEMENT_3D('',#512,#436,#437);
#367=AXIS2_PLACEMENT_3D('',#513,#438,#439);
#368=AXIS2_PLACEMENT_3D('',#515,#440,#441);
#369=AXIS2_PLACEMENT_3D('',#516,#442,#443);
#370=AXIS2_PLACEMENT_3D('',#518,#444,#445);
#371=AXIS2_PLACEMENT_3D('',#519,#446,#447);
#372=AXIS2_PLACEMENT_3D('',#521,#448,#449);
#373=AXIS2_PLACEMENT_3D('',#522,#450,#451);
#374=AXIS2_PLACEMENT_3D('',#524,#452,#453);
#375=AXIS2_PLACEMENT_3D('',#525,#454,#455);
#376=AXIS2_PLACEMENT_3D('',#527,#456,#457);
#377=AXIS2_PLACEMENT_3D('',#528,#458,#459);
#378=AXIS2_PLACEMENT_3D('',#530,#460,#461);
#379=AXIS2_PLACEMENT_3D('',#531,#462,#463);
#380=AXIS2_PLACEMENT_3D('',#533,#464,#465);
#381=AXIS2_PLACEMENT_3D('',#534,#466,#467);
#382=AXIS2_PLACEMENT_3D('',#536,#468,#469);
#383=AXIS2_PLACEMENT_3D('',#537,#470,#471);
#384=DIRECTION('',(0.0,0.0,1.0));
#385=DIRECTION('',(1.0,0.0,0.0));
#386=DIRECTION('',(0.0,0.0,-1.0));
#387=DIRECTION('',(1.0,0.0,0.0));
#388=DIRECTION('',(0.0,0.0,-1.0));
#389=DIRECTION('',(1.0,0.0,0.0));
#390=DIRECTION('',(0.0,0.0,-1.0));
#391=DIRECTION('',(-1.0,0.0,0.0));
#392=DIRECTION('',(0.0,0.0,-1.0));
#393=DIRECTION('',(1.0,0.0,0.0));
#394=DIRECTION('',(0.0,0.0,-1.0));
#395=DIRECTION('',(-1.0,0.0,0.0));
#396=DIRECTION('',(0.0,0.0,-1.0));
#397=DIRECTION('',(1.0,0.0,0.0));
#398=DIRECTION('',(0.0,0.0,1.0));
#399=DIRECTION('',(1.0,0.0,0.0));
#400=DIRECTION('',(0.0,0.0,-1.0));
#401=DIRECTION('',(1.0,0.0,0.0));
#402=DIRECTION('',(0.0,0.0,-1.0));
#403=DIRECTION('',(-1.0,0.0,0.0));
#404=DIRECTION('',(0.0,0.0,-1.0));
#405=DIRECTION('',(1.0,0.0,0.0));
#406=DIRECTION('',(0.0,0.0,-1.0));
#407=DIRECTION('',(-1.0,0.0,0.0));
#408=DIRECTION('',(0.0,0.0,-1.0));
#409=DIRECTION('',(1.0,0.0,0.0));
#410=DIRECTION('',(0.0,0.0,-1.0));
#411=DIRECTION('',(-1.0,0.0,0.0));
#412=DIRECTION('',(0.0,0.0,-1.0));
#413=DIRECTION('',(1.0,0.0,0.0));
#414=DIRECTION('',(0.0,0.0,-1.0));
#415=DIRECTION('',(-1.0,0.0,0.0));
#416=DIRECTION('',(0.0,0.0,-1.0));
#417=DIRECTION('',(-1.0,0.0,0.0));
#418=DIRECTION('',(0.0,0.0,-1.0));
#419=DIRECTION('',(1.0,0.0,0.0));
#420=DIRECTION('',(0.0,0.0,-1.0));
#421=DIRECTION('',(-1.0,0.0,-4.16930808646826E-17));
#422=DIRECTION('',(0.0,0.0,-1.0));
#423=DIRECTION('',(1.0,0.0,0.0));
#424=DIRECTION('',(0.0,0.0,-1.0));
#425=DIRECTION('',(-1.0,0.0,0.0));
#426=DIRECTION('',(0.0,0.0,-1.0));
#427=DIRECTION('',(1.0,0.0,0.0));
#428=DIRECTION('',(0.0,0.0,-1.0));
#429=DIRECTION('',(-1.0,0.0,0.0));
#430=DIRECTION('',(0.0,0.0,-1.0));
#431=DIRECTION('',(1.0,0.0,0.0));
#432=DIRECTION('',(0.0,0.0,-1.0));
#433=DIRECTION('',(-1.0,0.0,-1.22244604363814E-17));
#434=DIRECTION('',(0.0,0.0,-1.0));
#435=DIRECTION('',(1.0,0.0,0.0));
#436=DIRECTION('',(0.0,0.0,-1.0));
#437=DIRECTION('',(-1.0,0.0,0.0));
#438=DIRECTION('',(0.0,0.0,-1.0));
#439=DIRECTION('',(1.0,0.0,0.0));
#440=DIRECTION('',(0.0,0.0,1.0));
#441=DIRECTION('',(1.0,0.0,1.00810276864008E-17));
#442=DIRECTION('',(0.0,0.0,-1.0));
#443=DIRECTION('',(1.0,0.0,0.0));
#444=DIRECTION('',(0.0,0.0,-1.0));
#445=DIRECTION('',(-1.0,0.0,0.0));
#446=DIRECTION('',(0.0,0.0,-1.0));
#447=DIRECTION('',(1.0,0.0,0.0));
#448=DIRECTION('',(0.0,0.0,-1.0));
#449=DIRECTION('',(-1.0,0.0,8.80003583058069E-16));
#450=DIRECTION('',(0.0,0.0,-1.0));
#451=DIRECTION('',(1.0,0.0,0.0));
#452=DIRECTION('',(0.0,0.0,-1.0));
#453=DIRECTION('',(-1.0,0.0,3.02382056859916E-17));
#454=DIRECTION('',(0.0,0.0,-1.0));
#455=DIRECTION('',(1.0,0.0,0.0));
#456=DIRECTION('',(0.0,0.0,-1.0));
#457=DIRECTION('',(-1.0,0.0,0.0));
#458=DIRECTION('',(0.0,0.0,-1.0));
#459=DIRECTION('',(1.0,0.0,0.0));
#460=DIRECTION('',(0.0,0.0,-1.0));
#461=DIRECTION('',(-1.0,0.0,0.0));
#462=DIRECTION('',(0.0,0.0,-1.0));
#463=DIRECTION('',(1.0,0.0,0.0));
#464=DIRECTION('',(0.0,0.0,-1.0));
#465=DIRECTION('',(-1.0,0.0,0.0));
#466=DIRECTION('',(0.0,0.0,-1.0));
#467=DIRECTION('',(1.0,0.0,0.0));
#468=DIRECTION('',(0.0,0.0,-1.0));
#469=DIRECTION('',(-1.0,0.0,6.58050830577696E-16));
#470=DIRECTION('',(0.0,0.0,-1.0));
#471=DIRECTION('',(-1.0,0.0,1.28534601261368E-17));
#472=CARTESIAN_POINT('',(0.0,0.0,0.0));
#473=CARTESIAN_POINT('',(0.0,0.0,-105.9997));
#474=CARTESIAN_POINT('',(9.34675000000001,0.0,-105.9997));
#475=CARTESIAN_POINT('',(0.0,0.0,-0.999999999999999));
#476=CARTESIAN_POINT('',(9.34675,0.0,-0.999999999999999));
#477=CARTESIAN_POINT('',(0.0,0.0,70.5183697733042));
#478=CARTESIAN_POINT('',(0.0,0.0,-106.061521093177));
#479=CARTESIAN_POINT('',(9.34194381629578,0.0,-106.061521093177));
#480=CARTESIAN_POINT('',(0.0,0.0,-105.9997));
#481=CARTESIAN_POINT('',(0.0,0.0,-106.938178906823));
#482=CARTESIAN_POINT('',(9.20480618370423,0.0,-106.938178906823));
#483=CARTESIAN_POINT('',(0.0,0.0,-106.938178906823));
#484=CARTESIAN_POINT('',(0.0,0.0,-107.0));
#485=CARTESIAN_POINT('',(9.2,0.0,-107.0));
#486=CARTESIAN_POINT('',(0.0,0.0,-107.0));
#487=CARTESIAN_POINT('',(0.0,0.0,-109.9997));
#488=CARTESIAN_POINT('',(9.2,0.0,-109.9997));
#489=CARTESIAN_POINT('',(0.0,0.0,70.5183697733042));
#490=CARTESIAN_POINT('',(0.0,0.0,-109.9997));
#491=CARTESIAN_POINT('',(7.96746876431976,0.0,-109.9997));
#492=CARTESIAN_POINT('',(1.59872115546023E-14,0.0,-109.9997));
#493=CARTESIAN_POINT('',(0.0,0.0,0.0));
#494=CARTESIAN_POINT('',(8.34675,0.0,0.0));
#495=CARTESIAN_POINT('',(0.0,0.0,0.0));
#496=CARTESIAN_POINT('',(0.0,0.0,0.0));
#497=CARTESIAN_POINT('',(0.0,0.0,-88.4997));
#498=CARTESIAN_POINT('',(4.625,0.0,-88.4997));
#499=CARTESIAN_POINT('',(0.0,0.0,-85.7207196369975));
#500=CARTESIAN_POINT('',(0.0,0.0,-85.7207196369975));
#501=CARTESIAN_POINT('',(0.0,0.0,-92.4997));
#502=CARTESIAN_POINT('',(4.625,0.0,-92.4997));
#503=CARTESIAN_POINT('',(0.0,0.0,-109.9997));
#504=CARTESIAN_POINT('',(0.0,0.0,-92.8936231012049));
#505=CARTESIAN_POINT('',(4.95554072893323,0.0,-92.8936231012049));
#506=CARTESIAN_POINT('',(0.0,0.0,-92.4997));
#507=CARTESIAN_POINT('',(0.0,0.0,-92.9988517296589));
#508=CARTESIAN_POINT('',(5.552321936388,0.0,-92.9988517296589));
#509=CARTESIAN_POINT('',(0.0,0.0,-92.8936231012049));
#510=CARTESIAN_POINT('',(0.0,0.0,-95.5007022155965));
#511=CARTESIAN_POINT('',(5.77120549174436,0.0,-95.5007022155965));
#512=CARTESIAN_POINT('',(0.0,0.0,-94.2791018085748));
#513=CARTESIAN_POINT('',(0.0,0.0,-95.5820115663786));
#514=CARTESIAN_POINT('',(5.54780988648006,0.0,-95.5820115663786));
#515=CARTESIAN_POINT('',(0.0,0.0,-95.5007022155965));
#516=CARTESIAN_POINT('',(0.0,0.0,-95.9997));
#517=CARTESIAN_POINT('',(5.28680918566302,0.0,-95.9997));
#518=CARTESIAN_POINT('',(0.0,0.0,-95.9578886146929));
#519=CARTESIAN_POINT('',(0.0,0.0,-104.8337));
#520=CARTESIAN_POINT('',(6.2153,0.0,-104.8337));
#521=CARTESIAN_POINT('',(0.0,0.0,-95.9997));
#522=CARTESIAN_POINT('',(0.0,0.0,-105.129756354157));
#523=CARTESIAN_POINT('',(7.02870814793346,0.0,-105.129756354157));
#524=CARTESIAN_POINT('',(0.0,0.0,-104.8337));
#525=CARTESIAN_POINT('',(0.0,0.0,-105.59960266455));
#526=CARTESIAN_POINT('',(7.35769807627063,0.0,-105.59960266455));
#527=CARTESIAN_POINT('',(0.0,0.0,-105.59960266455));
#528=CARTESIAN_POINT('',(0.0,0.0,-107.1997));
#529=CARTESIAN_POINT('',(7.35769807627063,0.0,-107.1997));
#530=CARTESIAN_POINT('',(0.0,0.0,-109.9997));
#531=CARTESIAN_POINT('',(0.0,0.0,-107.4997));
#532=CARTESIAN_POINT('',(7.25769807627063,0.0,-107.4997));
#533=CARTESIAN_POINT('',(0.0,0.0,-107.1997));
#534=CARTESIAN_POINT('',(0.0,0.0,-109.3997));
#535=CARTESIAN_POINT('',(7.32404753830495,0.0,-109.3997));
#536=CARTESIAN_POINT('',(0.0,0.0,-107.4997));
#537=CARTESIAN_POINT('',(0.0,0.0,-109.3997));
#538=MECHANICAL_DESIGN_GEOMETRIC_PRESENTATION_REPRESENTATION('',(#94),#539);
#539=(GEOMETRIC_REPRESENTATION_CONTEXT(3)GLOBAL_UNCERTAINTY_ASSIGNED_CONTEXT((#540))
     GLOBAL_UNIT_ASSIGNED_CONTEXT((#546,#542,#541))REPRESENTATION_CONTEXT('AEH20-A18',
     'TOP_LEVEL_ASSEMBLY_PART'));
#540=UNCERTAINTY_MEASURE_WITH_UNIT(LENGTH_MEASURE(2.0E-5),#546,'DISTANCE_ACCURACY_VALUE',
     'Maximum Tolerance applied to model');
#541=(NAMED_UNIT(*)SI_UNIT($,.STERADIAN.)SOLID_ANGLE_UNIT());
#542=(CONVERSION_BASED_UNIT('DEGREE',#544)NAMED_UNIT(*)PLANE_ANGLE_UNIT());
#543=DIMENSIONAL_EXPONENTS(0.0,0.0,0.0,0.0,0.0,0.0,0.0);
#544=PLANE_ANGLE_MEASURE_WITH_UNIT(PLANE_ANGLE_MEASURE(0.0174532925),#545);
#545=(NAMED_UNIT(*)PLANE_ANGLE_UNIT()SI_UNIT($,.RADIAN.));
#546=(LENGTH_UNIT()NAMED_UNIT(*)SI_UNIT(.MILLI.,.METRE.));
#547=CARTESIAN_POINT('',(0.0,0.0,0.0));
#548=DIRECTION('',(0.0,0.0,1.0));
#549=DIRECTION('',(1.0,0.0,0.0));
#550=AXIS2_PLACEMENT_3D('PCS',#547,#548,#549);
#551=CARTESIAN_POINT('',(0.0,0.0,-41.0));
#552=DIRECTION('',(0.0,0.0,1.0));
#553=DIRECTION('',(1.0,0.0,0.0));
#554=AXIS2_PLACEMENT_3D('MCS',#551,#552,#553);
#555=CARTESIAN_POINT('',(0.0,0.0,-110.0));
#556=DIRECTION('',(0.0,0.0,1.0));
#557=DIRECTION('',(1.0,0.0,0.0));
#558=AXIS2_PLACEMENT_3D('CSW',#555,#556,#557);
#559=CONSTRUCTIVE_GEOMETRY_REPRESENTATION('supplemental geometry',(#550,#554,#558),
     #539);
#560=CONSTRUCTIVE_GEOMETRY_REPRESENTATION_RELATIONSHIP('supplemental geometry',$,
     #92,#559);
ENDSEC;
END-ISO-10303-21;
