ISO-10303-21;
HEADER;
FILE_DESCRIPTION(
/* description */ ('3-D model version:1'),
/* implementation_level */ '2;1');
FILE_NAME(
/* name */ 'AE12-A12-SS-045',
/* time_stamp */ '2016-12-02T13:55:37',
/* author */ ('InteractiveCad'),
/* organization */ ('AB Sandvik Coromant'),
/* preprocessor_version */ 'ST-DEVELOPER v11',
/* originating_system */ 'SIEMENS UGS NX 6.0',
/* authorization */ '');
FILE_SCHEMA(('AUTOMOTIVE_DESIGN'));
ENDSEC;
DATA;
#10=SHAPE_REPRESENTATION_RELATIONSHIP('None','relationship between AE12_A12_SS_045_635120833398214963_1_stp-None and AE12_A12_SS_045_635120833398214963_1_stp-None',
     #94,#11);
#11=ADVANCED_BREP_SHAPE_REPRESENTATION('AE12_A12_SS_045_635120833398214963_1_stp-None',
     (#104),#501);
#15=APPROVAL_PERSON_ORGANIZATION(#69,#24,#18);
#16=APPROVAL_PERSON_ORGANIZATION(#70,#25,#19);
#17=APPROVAL_PERSON_ORGANIZATION(#71,#26,#20);
#18=APPROVAL_ROLE('approver');
#19=APPROVAL_ROLE('approver');
#20=APPROVAL_ROLE('approver');
#21=APPROVAL_DATE_TIME(#39,#24);
#22=APPROVAL_DATE_TIME(#40,#25);
#23=APPROVAL_DATE_TIME(#41,#26);
#24=APPROVAL(#27,' ');
#25=APPROVAL(#28,' ');
#26=APPROVAL(#29,' ');
#27=APPROVAL_STATUS('not_yet_approved');
#28=APPROVAL_STATUS('not_yet_approved');
#29=APPROVAL_STATUS('not_yet_approved');
#31=SECURITY_CLASSIFICATION(' ',' ',#32);
#32=SECURITY_CLASSIFICATION_LEVEL('confidential');
#35=DATE_TIME_ROLE('creation_date');
#36=DATE_TIME_ROLE('classification_date');
#37=DATE_AND_TIME(#52,#42);
#38=DATE_AND_TIME(#53,#43);
#39=DATE_AND_TIME(#54,#44);
#40=DATE_AND_TIME(#55,#45);
#41=DATE_AND_TIME(#56,#46);
#42=LOCAL_TIME(0,0,0.0,#47);
#43=LOCAL_TIME(0,0,0.0,#48);
#44=LOCAL_TIME(0,0,0.0,#49);
#45=LOCAL_TIME(0,0,0.0,#50);
#46=LOCAL_TIME(0,0,0.0,#51);
#47=COORDINATED_UNIVERSAL_TIME_OFFSET(0,0,.BEHIND.);
#48=COORDINATED_UNIVERSAL_TIME_OFFSET(0,0,.BEHIND.);
#49=COORDINATED_UNIVERSAL_TIME_OFFSET(0,0,.BEHIND.);
#50=COORDINATED_UNIVERSAL_TIME_OFFSET(0,0,.BEHIND.);
#51=COORDINATED_UNIVERSAL_TIME_OFFSET(0,0,.BEHIND.);
#52=CALENDAR_DATE(0,1,1);
#53=CALENDAR_DATE(0,1,1);
#54=CALENDAR_DATE(0,1,1);
#55=CALENDAR_DATE(0,1,1);
#56=CALENDAR_DATE(0,1,1);
#61=PERSON_AND_ORGANIZATION_ROLE('creator');
#62=PERSON_AND_ORGANIZATION_ROLE('design_owner');
#63=PERSON_AND_ORGANIZATION_ROLE('design_supplier');
#64=PERSON_AND_ORGANIZATION_ROLE('classification_officer');
#65=PERSON_AND_ORGANIZATION(#79,#72);
#66=PERSON_AND_ORGANIZATION(#79,#73);
#67=PERSON_AND_ORGANIZATION(#79,#74);
#68=PERSON_AND_ORGANIZATION(#79,#75);
#69=PERSON_AND_ORGANIZATION(#79,#76);
#70=PERSON_AND_ORGANIZATION(#79,#77);
#71=PERSON_AND_ORGANIZATION(#79,#78);
#72=ORGANIZATION(' ',' ',' ');
#73=ORGANIZATION(' ',' ',' ');
#74=ORGANIZATION(' ',' ',' ');
#75=ORGANIZATION(' ',' ',' ');
#76=ORGANIZATION(' ',' ',' ');
#77=ORGANIZATION(' ',' ',' ');
#78=ORGANIZATION(' ',' ',' ');
#79=PERSON(' ',' ',' ',(' '),$,$);
#80=SHAPE_DEFINITION_REPRESENTATION(#81,#94);
#81=PRODUCT_DEFINITION_SHAPE('','',#82);
#82=PRODUCT_DEFINITION(' ','',#84,$);
#84=PRODUCT_DEFINITION_FORMATION_WITH_SPECIFIED_SOURCE(' ',' ',#86,.NOT_KNOWN.);
#85=PRODUCT_RELATED_PRODUCT_CATEGORY('detail','',(#86));
#86=PRODUCT('AE12_A12_SS_045_635120833398214963_1_stp','AE12_A12_SS_045_635120833398214963_1_stp',
     ' ',());
#87=PRODUCT_CATEGORY_RELATIONSHIP(' ',' ',#89,#90);
#88=PRODUCT_CATEGORY_RELATIONSHIP('','',#90,#85);
#89=PRODUCT_CATEGORY('part',' ');
#90=PRODUCT_CATEGORY(' ','');
#92=APPLICATION_PROTOCOL_DEFINITION('international standard','config_control_design',
     1994,#93);
#93=APPLICATION_CONTEXT('configuration controlled 3D designs of mechanical parts and assemblies');
#94=SHAPE_REPRESENTATION('AE12_A12_SS_045_635120833398214963_1_stp-None',(#320),
     #501);
#95=PRESENTATION_LAYER_ASSIGNMENT('1','Layer 1',(#104));
#96=STYLED_ITEM('',(#97),#104);
#97=PRESENTATION_STYLE_ASSIGNMENT((#98));
#98=SURFACE_STYLE_USAGE(.BOTH.,#99);
#99=SURFACE_SIDE_STYLE('',(#100));
#100=SURFACE_STYLE_FILL_AREA(#101);
#101=FILL_AREA_STYLE('',(#102));
#102=FILL_AREA_STYLE_COLOUR('',#103);
#103=COLOUR_RGB('TLS_NOCUT',0.499992370489052,0.499992370489052,0.499992370489052);
#104=MANIFOLD_SOLID_BREP('NOCUT',#105);
#105=CLOSED_SHELL('',(#124,#125,#126,#127,#128,#129,#130,#131,#132,#133,#134,#135,
     #136,#137,#138,#139,#140,#141,#142,#143));
#106=VERTEX_LOOP('',#271);
#107=FACE_OUTER_BOUND('',#198,.T.);
#108=PLANE('',#333);
#109=PLANE('',#335);
#110=CONICAL_SURFACE('',#327,6.11388796872631,15.1422925030585);
#111=CONICAL_SURFACE('',#336,5.34725,45.0);
#112=CONICAL_SURFACE('',#338,0.0,59.0);
#113=CONICAL_SURFACE('',#342,2.775,75.0000000000006);
#114=CONICAL_SURFACE('',#346,3.75464583834813,20.0000000000001);
#115=CONICAL_SURFACE('',#348,3.49549967072475,6.0);
#116=CONICAL_SURFACE('',#350,4.0,70.0000000000001);
#117=CONICAL_SURFACE('',#358,4.5301584610165,2.00000000000003);
#118=CONICAL_SURFACE('',#359,4.58253961525413,47.0);
#119=TOROIDAL_SURFACE('',#325,5.94725,0.400000000000006);
#120=TOROIDAL_SURFACE('',#329,6.50000000000001,0.400000000000001);
#121=TOROIDAL_SURFACE('',#344,2.81495321756222,1.0);
#122=TOROIDAL_SURFACE('',#352,4.1301584610165,0.5);
#123=TOROIDAL_SURFACE('',#356,4.1301584610165,0.500000000000005);
#124=ADVANCED_FACE('FP_EH_SU1',(#148,#149),#144,.T.);
#125=ADVANCED_FACE('',(#150,#151),#119,.T.);
#126=ADVANCED_FACE('FP_EH_SU2',(#152,#153),#110,.T.);
#127=ADVANCED_FACE('',(#154,#155),#120,.F.);
#128=ADVANCED_FACE('FP_EH_SU3',(#156,#157),#145,.T.);
#129=ADVANCED_FACE('FP_EH_SU4',(#158,#159),#108,.T.);
#130=ADVANCED_FACE('',(#107),#109,.F.);
#131=ADVANCED_FACE('',(#160,#161),#111,.T.);
#132=ADVANCED_FACE('',(#162,#163),#112,.F.);
#133=ADVANCED_FACE('DCH3',(#164,#165),#146,.F.);
#134=ADVANCED_FACE('',(#166,#167),#113,.F.);
#135=ADVANCED_FACE('',(#168,#169),#121,.F.);
#136=ADVANCED_FACE('',(#170,#171),#114,.F.);
#137=ADVANCED_FACE('TSALN',(#172,#173),#115,.F.);
#138=ADVANCED_FACE('',(#174,#175),#116,.F.);
#139=ADVANCED_FACE('',(#176,#177),#122,.F.);
#140=ADVANCED_FACE('DCH2',(#178,#179),#147,.F.);
#141=ADVANCED_FACE('',(#180,#181),#123,.F.);
#142=ADVANCED_FACE('TSAN',(#182,#183),#117,.F.);
#143=ADVANCED_FACE('DCH4',(#184,#185),#118,.F.);
#144=CYLINDRICAL_SURFACE('',#323,6.34725);
#145=CYLINDRICAL_SURFACE('',#331,6.1);
#146=CYLINDRICAL_SURFACE('',#340,2.775);
#147=CYLINDRICAL_SURFACE('',#354,4.63015846101651);
#148=FACE_BOUND('',#186,.T.);
#149=FACE_BOUND('',#187,.T.);
#150=FACE_BOUND('',#188,.T.);
#151=FACE_BOUND('',#189,.T.);
#152=FACE_BOUND('',#190,.T.);
#153=FACE_BOUND('',#191,.T.);
#154=FACE_BOUND('',#192,.T.);
#155=FACE_BOUND('',#193,.T.);
#156=FACE_BOUND('',#194,.T.);
#157=FACE_BOUND('',#195,.T.);
#158=FACE_BOUND('',#196,.T.);
#159=FACE_BOUND('',#197,.T.);
#160=FACE_BOUND('',#199,.T.);
#161=FACE_BOUND('',#200,.T.);
#162=FACE_BOUND('',#201,.T.);
#163=FACE_BOUND('',#106,.T.);
#164=FACE_BOUND('',#202,.T.);
#165=FACE_BOUND('',#203,.T.);
#166=FACE_BOUND('',#204,.T.);
#167=FACE_BOUND('',#205,.T.);
#168=FACE_BOUND('',#206,.T.);
#169=FACE_BOUND('',#207,.T.);
#170=FACE_BOUND('',#208,.T.);
#171=FACE_BOUND('',#209,.T.);
#172=FACE_BOUND('',#210,.T.);
#173=FACE_BOUND('',#211,.T.);
#174=FACE_BOUND('',#212,.T.);
#175=FACE_BOUND('',#213,.T.);
#176=FACE_BOUND('',#214,.T.);
#177=FACE_BOUND('',#215,.T.);
#178=FACE_BOUND('',#216,.T.);
#179=FACE_BOUND('',#217,.T.);
#180=FACE_BOUND('',#218,.T.);
#181=FACE_BOUND('',#219,.T.);
#182=FACE_BOUND('',#220,.T.);
#183=FACE_BOUND('',#221,.T.);
#184=FACE_BOUND('',#222,.T.);
#185=FACE_BOUND('',#223,.T.);
#186=EDGE_LOOP('',(#224));
#187=EDGE_LOOP('',(#225));
#188=EDGE_LOOP('',(#226));
#189=EDGE_LOOP('',(#227));
#190=EDGE_LOOP('',(#228));
#191=EDGE_LOOP('',(#229));
#192=EDGE_LOOP('',(#230));
#193=EDGE_LOOP('',(#231));
#194=EDGE_LOOP('',(#232));
#195=EDGE_LOOP('',(#233));
#196=EDGE_LOOP('',(#234));
#197=EDGE_LOOP('',(#235));
#198=EDGE_LOOP('',(#236));
#199=EDGE_LOOP('',(#237));
#200=EDGE_LOOP('',(#238));
#201=EDGE_LOOP('',(#239));
#202=EDGE_LOOP('',(#240));
#203=EDGE_LOOP('',(#241));
#204=EDGE_LOOP('',(#242));
#205=EDGE_LOOP('',(#243));
#206=EDGE_LOOP('',(#244));
#207=EDGE_LOOP('',(#245));
#208=EDGE_LOOP('',(#246));
#209=EDGE_LOOP('',(#247));
#210=EDGE_LOOP('',(#248));
#211=EDGE_LOOP('',(#249));
#212=EDGE_LOOP('',(#250));
#213=EDGE_LOOP('',(#251));
#214=EDGE_LOOP('',(#252));
#215=EDGE_LOOP('',(#253));
#216=EDGE_LOOP('',(#254));
#217=EDGE_LOOP('',(#255));
#218=EDGE_LOOP('',(#256));
#219=EDGE_LOOP('',(#257));
#220=EDGE_LOOP('',(#258));
#221=EDGE_LOOP('',(#259));
#222=EDGE_LOOP('',(#260));
#223=EDGE_LOOP('',(#261));
#224=ORIENTED_EDGE('',*,*,#282,.F.);
#225=ORIENTED_EDGE('',*,*,#283,.T.);
#226=ORIENTED_EDGE('',*,*,#282,.T.);
#227=ORIENTED_EDGE('',*,*,#284,.F.);
#228=ORIENTED_EDGE('',*,*,#284,.T.);
#229=ORIENTED_EDGE('',*,*,#285,.F.);
#230=ORIENTED_EDGE('',*,*,#285,.T.);
#231=ORIENTED_EDGE('',*,*,#286,.F.);
#232=ORIENTED_EDGE('',*,*,#286,.T.);
#233=ORIENTED_EDGE('',*,*,#287,.F.);
#234=ORIENTED_EDGE('',*,*,#288,.F.);
#235=ORIENTED_EDGE('',*,*,#287,.T.);
#236=ORIENTED_EDGE('',*,*,#289,.F.);
#237=ORIENTED_EDGE('',*,*,#283,.F.);
#238=ORIENTED_EDGE('',*,*,#289,.T.);
#239=ORIENTED_EDGE('',*,*,#290,.T.);
#240=ORIENTED_EDGE('',*,*,#291,.T.);
#241=ORIENTED_EDGE('',*,*,#290,.F.);
#242=ORIENTED_EDGE('',*,*,#292,.T.);
#243=ORIENTED_EDGE('',*,*,#291,.F.);
#244=ORIENTED_EDGE('',*,*,#293,.T.);
#245=ORIENTED_EDGE('',*,*,#292,.F.);
#246=ORIENTED_EDGE('',*,*,#294,.T.);
#247=ORIENTED_EDGE('',*,*,#293,.F.);
#248=ORIENTED_EDGE('',*,*,#295,.T.);
#249=ORIENTED_EDGE('',*,*,#294,.F.);
#250=ORIENTED_EDGE('',*,*,#296,.T.);
#251=ORIENTED_EDGE('',*,*,#295,.F.);
#252=ORIENTED_EDGE('',*,*,#297,.T.);
#253=ORIENTED_EDGE('',*,*,#296,.F.);
#254=ORIENTED_EDGE('',*,*,#298,.T.);
#255=ORIENTED_EDGE('',*,*,#297,.F.);
#256=ORIENTED_EDGE('',*,*,#299,.T.);
#257=ORIENTED_EDGE('',*,*,#298,.F.);
#258=ORIENTED_EDGE('',*,*,#300,.T.);
#259=ORIENTED_EDGE('',*,*,#299,.F.);
#260=ORIENTED_EDGE('',*,*,#288,.T.);
#261=ORIENTED_EDGE('',*,*,#300,.F.);
#262=VERTEX_POINT('',#442);
#263=VERTEX_POINT('',#444);
#264=VERTEX_POINT('',#447);
#265=VERTEX_POINT('',#450);
#266=VERTEX_POINT('',#453);
#267=VERTEX_POINT('',#456);
#268=VERTEX_POINT('',#459);
#269=VERTEX_POINT('',#462);
#270=VERTEX_POINT('',#466);
#271=VERTEX_POINT('',#467);
#272=VERTEX_POINT('',#470);
#273=VERTEX_POINT('',#473);
#274=VERTEX_POINT('',#476);
#275=VERTEX_POINT('',#479);
#276=VERTEX_POINT('',#482);
#277=VERTEX_POINT('',#485);
#278=VERTEX_POINT('',#488);
#279=VERTEX_POINT('',#491);
#280=VERTEX_POINT('',#494);
#281=VERTEX_POINT('',#497);
#282=EDGE_CURVE('',#262,#262,#301,.T.);
#283=EDGE_CURVE('',#263,#263,#302,.T.);
#284=EDGE_CURVE('',#264,#264,#303,.T.);
#285=EDGE_CURVE('',#265,#265,#304,.T.);
#286=EDGE_CURVE('',#266,#266,#305,.T.);
#287=EDGE_CURVE('',#267,#267,#306,.T.);
#288=EDGE_CURVE('',#268,#268,#307,.T.);
#289=EDGE_CURVE('',#269,#269,#308,.T.);
#290=EDGE_CURVE('',#270,#270,#309,.T.);
#291=EDGE_CURVE('',#272,#272,#310,.T.);
#292=EDGE_CURVE('',#273,#273,#311,.T.);
#293=EDGE_CURVE('',#274,#274,#312,.T.);
#294=EDGE_CURVE('',#275,#275,#313,.T.);
#295=EDGE_CURVE('',#276,#276,#314,.T.);
#296=EDGE_CURVE('',#277,#277,#315,.T.);
#297=EDGE_CURVE('',#278,#278,#316,.T.);
#298=EDGE_CURVE('',#279,#279,#317,.T.);
#299=EDGE_CURVE('',#280,#280,#318,.T.);
#300=EDGE_CURVE('',#281,#281,#319,.T.);
#301=CIRCLE('',#321,6.34725000000001);
#302=CIRCLE('',#322,6.34725);
#303=CIRCLE('',#324,6.33336203127369);
#304=CIRCLE('',#326,6.11388796872631);
#305=CIRCLE('',#328,6.1);
#306=CIRCLE('',#330,6.1);
#307=CIRCLE('',#332,5.11872397026647);
#308=CIRCLE('',#334,5.34725);
#309=CIRCLE('',#337,2.775);
#310=CIRCLE('',#339,2.775);
#311=CIRCLE('',#341,3.07377226266474);
#312=CIRCLE('',#343,3.75464583834813);
#313=CIRCLE('',#345,3.49549967072475);
#314=CIRCLE('',#347,4.0);
#315=CIRCLE('',#349,4.30116853267934);
#316=CIRCLE('',#351,4.6301584610165);
#317=CIRCLE('',#353,4.63015846101651);
#318=CIRCLE('',#355,4.5301584610165);
#319=CIRCLE('',#357,4.58253961525413);
#320=AXIS2_PLACEMENT_3D('',#440,#360,#361);
#321=AXIS2_PLACEMENT_3D('',#441,#362,#363);
#322=AXIS2_PLACEMENT_3D('',#443,#364,#365);
#323=AXIS2_PLACEMENT_3D('',#445,#366,#367);
#324=AXIS2_PLACEMENT_3D('',#446,#368,#369);
#325=AXIS2_PLACEMENT_3D('',#448,#370,#371);
#326=AXIS2_PLACEMENT_3D('',#449,#372,#373);
#327=AXIS2_PLACEMENT_3D('',#451,#374,#375);
#328=AXIS2_PLACEMENT_3D('',#452,#376,#377);
#329=AXIS2_PLACEMENT_3D('',#454,#378,#379);
#330=AXIS2_PLACEMENT_3D('',#455,#380,#381);
#331=AXIS2_PLACEMENT_3D('',#457,#382,#383);
#332=AXIS2_PLACEMENT_3D('',#458,#384,#385);
#333=AXIS2_PLACEMENT_3D('',#460,#386,#387);
#334=AXIS2_PLACEMENT_3D('',#461,#388,#389);
#335=AXIS2_PLACEMENT_3D('',#463,#390,#391);
#336=AXIS2_PLACEMENT_3D('',#464,#392,#393);
#337=AXIS2_PLACEMENT_3D('',#465,#394,#395);
#338=AXIS2_PLACEMENT_3D('',#468,#396,#397);
#339=AXIS2_PLACEMENT_3D('',#469,#398,#399);
#340=AXIS2_PLACEMENT_3D('',#471,#400,#401);
#341=AXIS2_PLACEMENT_3D('',#472,#402,#403);
#342=AXIS2_PLACEMENT_3D('',#474,#404,#405);
#343=AXIS2_PLACEMENT_3D('',#475,#406,#407);
#344=AXIS2_PLACEMENT_3D('',#477,#408,#409);
#345=AXIS2_PLACEMENT_3D('',#478,#410,#411);
#346=AXIS2_PLACEMENT_3D('',#480,#412,#413);
#347=AXIS2_PLACEMENT_3D('',#481,#414,#415);
#348=AXIS2_PLACEMENT_3D('',#483,#416,#417);
#349=AXIS2_PLACEMENT_3D('',#484,#418,#419);
#350=AXIS2_PLACEMENT_3D('',#486,#420,#421);
#351=AXIS2_PLACEMENT_3D('',#487,#422,#423);
#352=AXIS2_PLACEMENT_3D('',#489,#424,#425);
#353=AXIS2_PLACEMENT_3D('',#490,#426,#427);
#354=AXIS2_PLACEMENT_3D('',#492,#428,#429);
#355=AXIS2_PLACEMENT_3D('',#493,#430,#431);
#356=AXIS2_PLACEMENT_3D('',#495,#432,#433);
#357=AXIS2_PLACEMENT_3D('',#496,#434,#435);
#358=AXIS2_PLACEMENT_3D('',#498,#436,#437);
#359=AXIS2_PLACEMENT_3D('',#499,#438,#439);
#360=DIRECTION('',(0.0,0.0,1.0));
#361=DIRECTION('',(1.0,0.0,0.0));
#362=DIRECTION('',(0.0,0.0,-1.0));
#363=DIRECTION('',(1.0,0.0,0.0));
#364=DIRECTION('',(0.0,0.0,-1.0));
#365=DIRECTION('',(1.0,0.0,0.0));
#366=DIRECTION('',(0.0,0.0,-1.0));
#367=DIRECTION('',(-1.0,0.0,0.0));
#368=DIRECTION('',(0.0,0.0,-1.0));
#369=DIRECTION('',(1.0,0.0,0.0));
#370=DIRECTION('',(0.0,0.0,-1.0));
#371=DIRECTION('',(-1.0,0.0,0.0));
#372=DIRECTION('',(0.0,0.0,-1.0));
#373=DIRECTION('',(1.0,0.0,0.0));
#374=DIRECTION('',(0.0,0.0,1.0));
#375=DIRECTION('',(1.0,0.0,0.0));
#376=DIRECTION('',(0.0,0.0,-1.0));
#377=DIRECTION('',(1.0,0.0,0.0));
#378=DIRECTION('',(0.0,0.0,-1.0));
#379=DIRECTION('',(-1.0,0.0,0.0));
#380=DIRECTION('',(0.0,0.0,-1.0));
#381=DIRECTION('',(1.0,0.0,0.0));
#382=DIRECTION('',(0.0,0.0,-1.0));
#383=DIRECTION('',(-1.0,0.0,0.0));
#384=DIRECTION('',(0.0,0.0,-1.0));
#385=DIRECTION('',(1.0,0.0,0.0));
#386=DIRECTION('',(0.0,0.0,-1.0));
#387=DIRECTION('',(-1.0,0.0,0.0));
#388=DIRECTION('',(0.0,0.0,-1.0));
#389=DIRECTION('',(1.0,0.0,0.0));
#390=DIRECTION('',(0.0,0.0,-1.0));
#391=DIRECTION('',(-1.0,0.0,0.0));
#392=DIRECTION('',(0.0,0.0,-1.0));
#393=DIRECTION('',(-1.0,0.0,0.0));
#394=DIRECTION('',(0.0,0.0,-1.0));
#395=DIRECTION('',(1.0,0.0,0.0));
#396=DIRECTION('',(0.0,0.0,-1.0));
#397=DIRECTION('',(-1.0,0.0,-4.16930808646826E-17));
#398=DIRECTION('',(0.0,0.0,-1.0));
#399=DIRECTION('',(1.0,0.0,0.0));
#400=DIRECTION('',(0.0,0.0,-1.0));
#401=DIRECTION('',(-1.0,0.0,0.0));
#402=DIRECTION('',(0.0,0.0,-1.0));
#403=DIRECTION('',(1.0,0.0,0.0));
#404=DIRECTION('',(0.0,0.0,-1.0));
#405=DIRECTION('',(-1.0,0.0,2.22946748086986E-17));
#406=DIRECTION('',(0.0,0.0,-1.0));
#407=DIRECTION('',(1.0,0.0,0.0));
#408=DIRECTION('',(0.0,0.0,-1.0));
#409=DIRECTION('',(-1.0,0.0,0.0));
#410=DIRECTION('',(0.0,0.0,-1.0));
#411=DIRECTION('',(1.0,0.0,0.0));
#412=DIRECTION('',(0.0,0.0,1.0));
#413=DIRECTION('',(1.0,0.0,0.0));
#414=DIRECTION('',(0.0,0.0,-1.0));
#415=DIRECTION('',(1.0,0.0,0.0));
#416=DIRECTION('',(0.0,0.0,-1.0));
#417=DIRECTION('',(-1.0,0.0,7.66730479550893E-16));
#418=DIRECTION('',(0.0,0.0,-1.0));
#419=DIRECTION('',(1.0,0.0,0.0));
#420=DIRECTION('',(0.0,0.0,-1.0));
#421=DIRECTION('',(-1.0,0.0,-1.51312757026716E-17));
#422=DIRECTION('',(0.0,0.0,-1.0));
#423=DIRECTION('',(1.0,0.0,0.0));
#424=DIRECTION('',(0.0,0.0,-1.0));
#425=DIRECTION('',(-1.0,0.0,0.0));
#426=DIRECTION('',(0.0,0.0,-1.0));
#427=DIRECTION('',(1.0,0.0,0.0));
#428=DIRECTION('',(0.0,0.0,-1.0));
#429=DIRECTION('',(-1.0,0.0,0.0));
#430=DIRECTION('',(0.0,0.0,-1.0));
#431=DIRECTION('',(1.0,0.0,0.0));
#432=DIRECTION('',(0.0,0.0,-1.0));
#433=DIRECTION('',(-1.0,0.0,0.0));
#434=DIRECTION('',(0.0,0.0,-1.0));
#435=DIRECTION('',(1.0,0.0,0.0));
#436=DIRECTION('',(0.0,0.0,-1.0));
#437=DIRECTION('',(-1.0,0.0,-1.75886709489198E-15));
#438=DIRECTION('',(0.0,0.0,-1.0));
#439=DIRECTION('',(-1.0,0.0,9.02032609992143E-17));
#440=CARTESIAN_POINT('',(0.0,0.0,0.0));
#441=CARTESIAN_POINT('',(0.0,0.0,-87.88));
#442=CARTESIAN_POINT('',(6.34725000000001,0.0,-87.88));
#443=CARTESIAN_POINT('',(0.0,0.0,-1.0));
#444=CARTESIAN_POINT('',(6.34725,0.0,-1.0));
#445=CARTESIAN_POINT('',(0.0,0.0,54.3179268578294));
#446=CARTESIAN_POINT('',(0.0,0.0,-87.9844868379544));
#447=CARTESIAN_POINT('',(6.33336203127369,0.0,-87.9844868379544));
#448=CARTESIAN_POINT('',(0.0,0.0,-87.88));
#449=CARTESIAN_POINT('',(0.0,0.0,-88.7955131620456));
#450=CARTESIAN_POINT('',(6.11388796872631,0.0,-88.7955131620456));
#451=CARTESIAN_POINT('',(0.0,0.0,-88.7955131620456));
#452=CARTESIAN_POINT('',(0.0,0.0,-88.9));
#453=CARTESIAN_POINT('',(6.1,0.0,-88.9));
#454=CARTESIAN_POINT('',(0.0,0.0,-88.9));
#455=CARTESIAN_POINT('',(0.0,0.0,-114.3));
#456=CARTESIAN_POINT('',(6.1,0.0,-114.3));
#457=CARTESIAN_POINT('',(0.0,0.0,54.3179268578294));
#458=CARTESIAN_POINT('',(0.0,0.0,-114.3));
#459=CARTESIAN_POINT('',(5.11872397026647,0.0,-114.3));
#460=CARTESIAN_POINT('',(1.59872115546023E-14,0.0,-114.3));
#461=CARTESIAN_POINT('',(0.0,0.0,0.0));
#462=CARTESIAN_POINT('',(5.34725,0.0,0.0));
#463=CARTESIAN_POINT('',(0.0,0.0,0.0));
#464=CARTESIAN_POINT('',(0.0,0.0,0.0));
#465=CARTESIAN_POINT('',(0.0,0.0,-99.8));
#466=CARTESIAN_POINT('',(2.775,0.0,-99.8));
#467=CARTESIAN_POINT('',(0.0,0.0,-98.1326117821985));
#468=CARTESIAN_POINT('',(0.0,0.0,-98.1326117821985));
#469=CARTESIAN_POINT('',(0.0,0.0,-103.5));
#470=CARTESIAN_POINT('',(2.775,0.0,-103.5));
#471=CARTESIAN_POINT('',(0.0,0.0,-114.3));
#472=CARTESIAN_POINT('',(0.0,0.0,-103.580055786502));
#473=CARTESIAN_POINT('',(3.07377226266474,0.0,-103.580055786502));
#474=CARTESIAN_POINT('',(0.0,0.0,-103.5));
#475=CARTESIAN_POINT('',(0.0,0.0,-104.888001756117));
#476=CARTESIAN_POINT('',(3.75464583834813,0.0,-104.888001756117));
#477=CARTESIAN_POINT('',(0.0,0.0,-104.545981612791));
#478=CARTESIAN_POINT('',(0.0,0.0,-105.6));
#479=CARTESIAN_POINT('',(3.49549967072475,0.0,-105.6));
#480=CARTESIAN_POINT('',(0.0,0.0,-104.888001756117));
#481=CARTESIAN_POINT('',(0.0,0.0,-110.4));
#482=CARTESIAN_POINT('',(4.0,0.0,-110.4));
#483=CARTESIAN_POINT('',(0.0,0.0,-105.6));
#484=CARTESIAN_POINT('',(0.0,0.0,-110.509616381393));
#485=CARTESIAN_POINT('',(4.30116853267934,0.0,-110.509616381393));
#486=CARTESIAN_POINT('',(0.0,0.0,-110.4));
#487=CARTESIAN_POINT('',(0.0,0.0,-110.979462691786));
#488=CARTESIAN_POINT('',(4.6301584610165,0.0,-110.979462691786));
#489=CARTESIAN_POINT('',(0.0,0.0,-110.979462691786));
#490=CARTESIAN_POINT('',(0.0,0.0,-112.0));
#491=CARTESIAN_POINT('',(4.63015846101651,0.0,-112.0));
#492=CARTESIAN_POINT('',(0.0,0.0,-114.3));
#493=CARTESIAN_POINT('',(0.0,0.0,-112.3));
#494=CARTESIAN_POINT('',(4.5301584610165,0.0,-112.3));
#495=CARTESIAN_POINT('',(0.0,0.0,-112.0));
#496=CARTESIAN_POINT('',(0.0,0.0,-113.8));
#497=CARTESIAN_POINT('',(4.58253961525413,0.0,-113.8));
#498=CARTESIAN_POINT('',(0.0,0.0,-112.3));
#499=CARTESIAN_POINT('',(0.0,0.0,-113.8));
#500=MECHANICAL_DESIGN_GEOMETRIC_PRESENTATION_REPRESENTATION('',(#96),#501);
#501=(GEOMETRIC_REPRESENTATION_CONTEXT(3)GLOBAL_UNCERTAINTY_ASSIGNED_CONTEXT((#502))
     GLOBAL_UNIT_ASSIGNED_CONTEXT((#508,#504,#503))REPRESENTATION_CONTEXT('AE12_A12_SS_045_635120833398214963_1_stp',
     'TOP_LEVEL_ASSEMBLY_PART'));
#502=UNCERTAINTY_MEASURE_WITH_UNIT(LENGTH_MEASURE(2.0E-5),#508,'DISTANCE_ACCURACY_VALUE',
     'Maximum Tolerance applied to model');
#503=(NAMED_UNIT(*)SI_UNIT($,.STERADIAN.)SOLID_ANGLE_UNIT());
#504=(CONVERSION_BASED_UNIT('DEGREE',#506)NAMED_UNIT(*)PLANE_ANGLE_UNIT());
#505=DIMENSIONAL_EXPONENTS(0.0,0.0,0.0,0.0,0.0,0.0,0.0);
#506=PLANE_ANGLE_MEASURE_WITH_UNIT(PLANE_ANGLE_MEASURE(0.0174532925),#507);
#507=(NAMED_UNIT(*)PLANE_ANGLE_UNIT()SI_UNIT($,.RADIAN.));
#508=(LENGTH_UNIT()NAMED_UNIT(*)SI_UNIT(.MILLI.,.METRE.));
#509=CARTESIAN_POINT('',(0.0,0.0,0.0));
#510=DIRECTION('',(0.0,0.0,1.0));
#511=DIRECTION('',(1.0,0.0,0.0));
#512=AXIS2_PLACEMENT_3D('PCS',#509,#510,#511);
#513=CARTESIAN_POINT('',(0.0,0.0,-36.0));
#514=DIRECTION('',(0.0,0.0,1.0));
#515=DIRECTION('',(1.0,0.0,0.0));
#516=AXIS2_PLACEMENT_3D('MCS',#513,#514,#515);
#517=CARTESIAN_POINT('',(0.0,0.0,-114.3));
#518=DIRECTION('',(0.0,0.0,1.0));
#519=DIRECTION('',(1.0,0.0,0.0));
#520=AXIS2_PLACEMENT_3D('CSW',#517,#518,#519);
#521=CONSTRUCTIVE_GEOMETRY_REPRESENTATION('supplemental geometry',(#512,#516,#520),
     #501);
#522=CONSTRUCTIVE_GEOMETRY_REPRESENTATION_RELATIONSHIP('supplemental geometry',$,
     #94,#521);
ENDSEC;
END-ISO-10303-21;
