ISO-10303-21;
HEADER;
FILE_DESCRIPTION(
/* description */ ('3-D model version:1'),
/* implementation_level */ '2;1');
FILE_NAME(
/* name */ 'AA3B10-4038060',
/* time_stamp */ '2016-12-02T13:58:59',
/* author */ ('InteractiveCad'),
/* organization */ ('AB Sandvik Coromant'),
/* preprocessor_version */ 'ST-DEVELOPER v11',
/* originating_system */ 'SIEMENS UGS NX 6.0',
/* authorization */ '');
FILE_SCHEMA(('AUTOMOTIVE_DESIGN'));
ENDSEC;
DATA;
#10=SHAPE_REPRESENTATION_RELATIONSHIP('None','relationship between ds68B203kbqm-None and ds68B203kbqm-None',
     #22,#11);
#11=ADVANCED_BREP_SHAPE_REPRESENTATION('ds68B203kbqm-None',(#28,#361),#634);
#12=SHAPE_DEFINITION_REPRESENTATION(#13,#22);
#13=PRODUCT_DEFINITION_SHAPE('','',#14);
#14=PRODUCT_DEFINITION(' ','',#16,#15);
#15=PRODUCT_DEFINITION_CONTEXT('part definition',#21,'design');
#16=PRODUCT_DEFINITION_FORMATION_WITH_SPECIFIED_SOURCE(' ',' ',#18,.NOT_KNOWN.);
#17=PRODUCT_RELATED_PRODUCT_CATEGORY('part','',(#18));
#18=PRODUCT('ds68B203kbqm','ds68B203kbqm',' ',(#19));
#19=PRODUCT_CONTEXT(' ',#21,'mechanical');
#20=APPLICATION_PROTOCOL_DEFINITION('international standard','automotive_design',
     2001,#21);
#21=APPLICATION_CONTEXT('core data for automotive mechanical design processes');
#22=SHAPE_REPRESENTATION('ds68B203kbqm-None',(#360),#634);
#23=SURFACE_STYLE_USAGE(.BOTH.,#24);
#24=SURFACE_SIDE_STYLE('',(#25));
#25=SURFACE_STYLE_FILL_AREA(#26);
#26=FILL_AREA_STYLE('',(#27));
#27=FILL_AREA_STYLE_COLOUR('',#358);
#28=MANIFOLD_SOLID_BREP('NOCUT',#29);
#29=CLOSED_SHELL('',(#57,#58,#59,#60,#61,#62,#63,#64,#65,#66,#67,#68,#69,#70,#71,
     #72,#73,#74,#75,#76,#77,#78,#79,#80,#81,#82,#83,#84,#85,#86));
#30=CYLINDRICAL_SURFACE('',#373,19.050000000002);
#31=CYLINDRICAL_SURFACE('',#379,27.9999999999996);
#32=CYLINDRICAL_SURFACE('',#387,21.7249999999996);
#33=CYLINDRICAL_SURFACE('',#395,31.7599999999996);
#34=CYLINDRICAL_SURFACE('',#403,27.9999999999996);
#35=CYLINDRICAL_SURFACE('',#411,31.7600000000013);
#36=CYLINDRICAL_SURFACE('',#419,21.8749999999996);
#37=PLANE('',#367);
#38=PLANE('',#369);
#39=PLANE('',#375);
#40=PLANE('',#383);
#41=PLANE('',#391);
#42=PLANE('',#399);
#43=PLANE('',#407);
#44=PLANE('',#415);
#45=FACE_OUTER_BOUND('',#152,.T.);
#46=FACE_OUTER_BOUND('',#153,.T.);
#47=TOROIDAL_SURFACE('',#366,11.4276713777496,0.95);
#48=TOROIDAL_SURFACE('',#377,26.9999999999996,1.0);
#49=TOROIDAL_SURFACE('',#381,26.9999999999996,1.0);
#50=TOROIDAL_SURFACE('',#385,22.5249999999996,0.8);
#51=TOROIDAL_SURFACE('',#389,22.5249999999996,0.8);
#52=TOROIDAL_SURFACE('',#393,30.7599999999996,1.0);
#53=TOROIDAL_SURFACE('',#401,28.7499999999996,0.75);
#54=TOROIDAL_SURFACE('',#405,28.7499999999996,0.75);
#55=TOROIDAL_SURFACE('',#413,30.7599999999996,1.0);
#56=TOROIDAL_SURFACE('',#417,22.3749999999996,0.5);
#57=ADVANCED_FACE('',(#92,#93),#87,.T.);
#58=ADVANCED_FACE('',(#94,#95),#47,.T.);
#59=ADVANCED_FACE('',(#45),#37,.T.);
#60=ADVANCED_FACE('',(#46),#38,.T.);
#61=ADVANCED_FACE('',(#96,#97),#88,.T.);
#62=ADVANCED_FACE('',(#98,#99),#30,.T.);
#63=ADVANCED_FACE('',(#100,#101),#39,.T.);
#64=ADVANCED_FACE('',(#102,#103),#48,.T.);
#65=ADVANCED_FACE('',(#104,#105),#31,.T.);
#66=ADVANCED_FACE('',(#106,#107),#49,.T.);
#67=ADVANCED_FACE('',(#108,#109),#40,.T.);
#68=ADVANCED_FACE('',(#110,#111),#50,.F.);
#69=ADVANCED_FACE('',(#112,#113),#32,.T.);
#70=ADVANCED_FACE('',(#114,#115),#51,.F.);
#71=ADVANCED_FACE('',(#116,#117),#41,.T.);
#72=ADVANCED_FACE('',(#118,#119),#52,.T.);
#73=ADVANCED_FACE('',(#120,#121),#33,.T.);
#74=ADVANCED_FACE('',(#122,#123),#89,.T.);
#75=ADVANCED_FACE('',(#124,#125),#42,.T.);
#76=ADVANCED_FACE('',(#126,#127),#53,.F.);
#77=ADVANCED_FACE('',(#128,#129),#34,.T.);
#78=ADVANCED_FACE('',(#130,#131),#54,.F.);
#79=ADVANCED_FACE('',(#132,#133),#43,.T.);
#80=ADVANCED_FACE('',(#134,#135),#90,.T.);
#81=ADVANCED_FACE('',(#136,#137),#35,.T.);
#82=ADVANCED_FACE('',(#138,#139),#55,.T.);
#83=ADVANCED_FACE('',(#140,#141),#44,.T.);
#84=ADVANCED_FACE('',(#142,#143),#56,.F.);
#85=ADVANCED_FACE('',(#144,#145),#36,.T.);
#86=ADVANCED_FACE('',(#146,#147),#91,.T.);
#87=CONICAL_SURFACE('',#364,22.1535820415766,8.29782682821158);
#88=CONICAL_SURFACE('',#371,18.4726497308095,30.0000000002227);
#89=CONICAL_SURFACE('',#397,31.7599999999996,59.9999999998927);
#90=CONICAL_SURFACE('',#409,28.9625471694796,59.9999999999848);
#91=CONICAL_SURFACE('',#420,21.8749999999996,15.0000000001536);
#92=FACE_BOUND('',#148,.T.);
#93=FACE_BOUND('',#149,.T.);
#94=FACE_BOUND('',#150,.T.);
#95=FACE_BOUND('',#151,.T.);
#96=FACE_BOUND('',#154,.T.);
#97=FACE_BOUND('',#155,.T.);
#98=FACE_BOUND('',#156,.T.);
#99=FACE_BOUND('',#157,.T.);
#100=FACE_BOUND('',#158,.T.);
#101=FACE_BOUND('',#159,.T.);
#102=FACE_BOUND('',#160,.T.);
#103=FACE_BOUND('',#161,.T.);
#104=FACE_BOUND('',#162,.T.);
#105=FACE_BOUND('',#163,.T.);
#106=FACE_BOUND('',#164,.T.);
#107=FACE_BOUND('',#165,.T.);
#108=FACE_BOUND('',#166,.T.);
#109=FACE_BOUND('',#167,.T.);
#110=FACE_BOUND('',#168,.T.);
#111=FACE_BOUND('',#169,.T.);
#112=FACE_BOUND('',#170,.T.);
#113=FACE_BOUND('',#171,.T.);
#114=FACE_BOUND('',#172,.T.);
#115=FACE_BOUND('',#173,.T.);
#116=FACE_BOUND('',#174,.T.);
#117=FACE_BOUND('',#175,.T.);
#118=FACE_BOUND('',#176,.T.);
#119=FACE_BOUND('',#177,.T.);
#120=FACE_BOUND('',#178,.T.);
#121=FACE_BOUND('',#179,.T.);
#122=FACE_BOUND('',#180,.T.);
#123=FACE_BOUND('',#181,.T.);
#124=FACE_BOUND('',#182,.T.);
#125=FACE_BOUND('',#183,.T.);
#126=FACE_BOUND('',#184,.T.);
#127=FACE_BOUND('',#185,.T.);
#128=FACE_BOUND('',#186,.T.);
#129=FACE_BOUND('',#187,.T.);
#130=FACE_BOUND('',#188,.T.);
#131=FACE_BOUND('',#189,.T.);
#132=FACE_BOUND('',#190,.T.);
#133=FACE_BOUND('',#191,.T.);
#134=FACE_BOUND('',#192,.T.);
#135=FACE_BOUND('',#193,.T.);
#136=FACE_BOUND('',#194,.T.);
#137=FACE_BOUND('',#195,.T.);
#138=FACE_BOUND('',#196,.T.);
#139=FACE_BOUND('',#197,.T.);
#140=FACE_BOUND('',#198,.T.);
#141=FACE_BOUND('',#199,.T.);
#142=FACE_BOUND('',#200,.T.);
#143=FACE_BOUND('',#201,.T.);
#144=FACE_BOUND('',#202,.T.);
#145=FACE_BOUND('',#203,.T.);
#146=FACE_BOUND('',#204,.T.);
#147=FACE_BOUND('',#205,.T.);
#148=EDGE_LOOP('',(#206));
#149=EDGE_LOOP('',(#207));
#150=EDGE_LOOP('',(#208));
#151=EDGE_LOOP('',(#209));
#152=EDGE_LOOP('',(#210));
#153=EDGE_LOOP('',(#211));
#154=EDGE_LOOP('',(#212));
#155=EDGE_LOOP('',(#213));
#156=EDGE_LOOP('',(#214));
#157=EDGE_LOOP('',(#215));
#158=EDGE_LOOP('',(#216));
#159=EDGE_LOOP('',(#217));
#160=EDGE_LOOP('',(#218));
#161=EDGE_LOOP('',(#219));
#162=EDGE_LOOP('',(#220));
#163=EDGE_LOOP('',(#221));
#164=EDGE_LOOP('',(#222));
#165=EDGE_LOOP('',(#223));
#166=EDGE_LOOP('',(#224));
#167=EDGE_LOOP('',(#225));
#168=EDGE_LOOP('',(#226));
#169=EDGE_LOOP('',(#227));
#170=EDGE_LOOP('',(#228));
#171=EDGE_LOOP('',(#229));
#172=EDGE_LOOP('',(#230));
#173=EDGE_LOOP('',(#231));
#174=EDGE_LOOP('',(#232));
#175=EDGE_LOOP('',(#233));
#176=EDGE_LOOP('',(#234));
#177=EDGE_LOOP('',(#235));
#178=EDGE_LOOP('',(#236));
#179=EDGE_LOOP('',(#237));
#180=EDGE_LOOP('',(#238));
#181=EDGE_LOOP('',(#239));
#182=EDGE_LOOP('',(#240));
#183=EDGE_LOOP('',(#241));
#184=EDGE_LOOP('',(#242));
#185=EDGE_LOOP('',(#243));
#186=EDGE_LOOP('',(#244));
#187=EDGE_LOOP('',(#245));
#188=EDGE_LOOP('',(#246));
#189=EDGE_LOOP('',(#247));
#190=EDGE_LOOP('',(#248));
#191=EDGE_LOOP('',(#249));
#192=EDGE_LOOP('',(#250));
#193=EDGE_LOOP('',(#251));
#194=EDGE_LOOP('',(#252));
#195=EDGE_LOOP('',(#253));
#196=EDGE_LOOP('',(#254));
#197=EDGE_LOOP('',(#255));
#198=EDGE_LOOP('',(#256));
#199=EDGE_LOOP('',(#257));
#200=EDGE_LOOP('',(#258));
#201=EDGE_LOOP('',(#259));
#202=EDGE_LOOP('',(#260));
#203=EDGE_LOOP('',(#261));
#204=EDGE_LOOP('',(#262));
#205=EDGE_LOOP('',(#263));
#206=ORIENTED_EDGE('',*,*,#293,.T.);
#207=ORIENTED_EDGE('',*,*,#294,.F.);
#208=ORIENTED_EDGE('',*,*,#295,.T.);
#209=ORIENTED_EDGE('',*,*,#293,.F.);
#210=ORIENTED_EDGE('',*,*,#295,.F.);
#211=ORIENTED_EDGE('',*,*,#296,.T.);
#212=ORIENTED_EDGE('',*,*,#297,.T.);
#213=ORIENTED_EDGE('',*,*,#296,.F.);
#214=ORIENTED_EDGE('',*,*,#298,.T.);
#215=ORIENTED_EDGE('',*,*,#297,.F.);
#216=ORIENTED_EDGE('',*,*,#299,.T.);
#217=ORIENTED_EDGE('',*,*,#298,.F.);
#218=ORIENTED_EDGE('',*,*,#300,.T.);
#219=ORIENTED_EDGE('',*,*,#299,.F.);
#220=ORIENTED_EDGE('',*,*,#301,.T.);
#221=ORIENTED_EDGE('',*,*,#300,.F.);
#222=ORIENTED_EDGE('',*,*,#302,.T.);
#223=ORIENTED_EDGE('',*,*,#301,.F.);
#224=ORIENTED_EDGE('',*,*,#303,.T.);
#225=ORIENTED_EDGE('',*,*,#302,.F.);
#226=ORIENTED_EDGE('',*,*,#304,.T.);
#227=ORIENTED_EDGE('',*,*,#303,.F.);
#228=ORIENTED_EDGE('',*,*,#305,.T.);
#229=ORIENTED_EDGE('',*,*,#304,.F.);
#230=ORIENTED_EDGE('',*,*,#306,.T.);
#231=ORIENTED_EDGE('',*,*,#305,.F.);
#232=ORIENTED_EDGE('',*,*,#307,.T.);
#233=ORIENTED_EDGE('',*,*,#306,.F.);
#234=ORIENTED_EDGE('',*,*,#308,.T.);
#235=ORIENTED_EDGE('',*,*,#307,.F.);
#236=ORIENTED_EDGE('',*,*,#309,.T.);
#237=ORIENTED_EDGE('',*,*,#308,.F.);
#238=ORIENTED_EDGE('',*,*,#310,.T.);
#239=ORIENTED_EDGE('',*,*,#309,.F.);
#240=ORIENTED_EDGE('',*,*,#311,.T.);
#241=ORIENTED_EDGE('',*,*,#310,.F.);
#242=ORIENTED_EDGE('',*,*,#312,.T.);
#243=ORIENTED_EDGE('',*,*,#311,.F.);
#244=ORIENTED_EDGE('',*,*,#313,.T.);
#245=ORIENTED_EDGE('',*,*,#312,.F.);
#246=ORIENTED_EDGE('',*,*,#314,.T.);
#247=ORIENTED_EDGE('',*,*,#313,.F.);
#248=ORIENTED_EDGE('',*,*,#315,.T.);
#249=ORIENTED_EDGE('',*,*,#314,.F.);
#250=ORIENTED_EDGE('',*,*,#316,.T.);
#251=ORIENTED_EDGE('',*,*,#315,.F.);
#252=ORIENTED_EDGE('',*,*,#317,.T.);
#253=ORIENTED_EDGE('',*,*,#316,.F.);
#254=ORIENTED_EDGE('',*,*,#318,.T.);
#255=ORIENTED_EDGE('',*,*,#317,.F.);
#256=ORIENTED_EDGE('',*,*,#319,.T.);
#257=ORIENTED_EDGE('',*,*,#318,.F.);
#258=ORIENTED_EDGE('',*,*,#320,.T.);
#259=ORIENTED_EDGE('',*,*,#319,.F.);
#260=ORIENTED_EDGE('',*,*,#321,.T.);
#261=ORIENTED_EDGE('',*,*,#320,.F.);
#262=ORIENTED_EDGE('',*,*,#294,.T.);
#263=ORIENTED_EDGE('',*,*,#321,.F.);
#264=VERTEX_POINT('',#546);
#265=VERTEX_POINT('',#548);
#266=VERTEX_POINT('',#551);
#267=VERTEX_POINT('',#555);
#268=VERTEX_POINT('',#558);
#269=VERTEX_POINT('',#561);
#270=VERTEX_POINT('',#564);
#271=VERTEX_POINT('',#567);
#272=VERTEX_POINT('',#570);
#273=VERTEX_POINT('',#573);
#274=VERTEX_POINT('',#576);
#275=VERTEX_POINT('',#579);
#276=VERTEX_POINT('',#582);
#277=VERTEX_POINT('',#585);
#278=VERTEX_POINT('',#588);
#279=VERTEX_POINT('',#591);
#280=VERTEX_POINT('',#594);
#281=VERTEX_POINT('',#597);
#282=VERTEX_POINT('',#600);
#283=VERTEX_POINT('',#603);
#284=VERTEX_POINT('',#606);
#285=VERTEX_POINT('',#609);
#286=VERTEX_POINT('',#612);
#287=VERTEX_POINT('',#615);
#288=VERTEX_POINT('',#618);
#289=VERTEX_POINT('',#621);
#290=VERTEX_POINT('',#624);
#291=VERTEX_POINT('',#627);
#292=VERTEX_POINT('',#630);
#293=EDGE_CURVE('',#264,#264,#322,.T.);
#294=EDGE_CURVE('',#265,#265,#323,.T.);
#295=EDGE_CURVE('',#266,#266,#324,.T.);
#296=EDGE_CURVE('',#267,#267,#325,.T.);
#297=EDGE_CURVE('',#268,#268,#326,.T.);
#298=EDGE_CURVE('',#269,#269,#327,.T.);
#299=EDGE_CURVE('',#270,#270,#328,.T.);
#300=EDGE_CURVE('',#271,#271,#329,.T.);
#301=EDGE_CURVE('',#272,#272,#330,.T.);
#302=EDGE_CURVE('',#273,#273,#331,.T.);
#303=EDGE_CURVE('',#274,#274,#332,.T.);
#304=EDGE_CURVE('',#275,#275,#333,.T.);
#305=EDGE_CURVE('',#276,#276,#334,.T.);
#306=EDGE_CURVE('',#277,#277,#335,.T.);
#307=EDGE_CURVE('',#278,#278,#336,.T.);
#308=EDGE_CURVE('',#279,#279,#337,.T.);
#309=EDGE_CURVE('',#280,#280,#338,.T.);
#310=EDGE_CURVE('',#281,#281,#339,.T.);
#311=EDGE_CURVE('',#282,#282,#340,.T.);
#312=EDGE_CURVE('',#283,#283,#341,.T.);
#313=EDGE_CURVE('',#284,#284,#342,.T.);
#314=EDGE_CURVE('',#285,#285,#343,.T.);
#315=EDGE_CURVE('',#286,#286,#344,.T.);
#316=EDGE_CURVE('',#287,#287,#345,.T.);
#317=EDGE_CURVE('',#288,#288,#346,.T.);
#318=EDGE_CURVE('',#289,#289,#347,.T.);
#319=EDGE_CURVE('',#290,#290,#348,.T.);
#320=EDGE_CURVE('',#291,#291,#349,.T.);
#321=EDGE_CURVE('',#292,#292,#350,.T.);
#322=CIRCLE('',#362,12.3677260782118);
#323=CIRCLE('',#363,22.1535820415766);
#324=CIRCLE('',#365,11.4276713777496);
#325=CIRCLE('',#368,18.4726497308095);
#326=CIRCLE('',#370,19.0500000000044);
#327=CIRCLE('',#372,19.0499999999996);
#328=CIRCLE('',#374,26.9999999999996);
#329=CIRCLE('',#376,27.9999999999996);
#330=CIRCLE('',#378,27.9999999999996);
#331=CIRCLE('',#380,26.9999999999996);
#332=CIRCLE('',#382,22.5249999999996);
#333=CIRCLE('',#384,21.7249999999996);
#334=CIRCLE('',#386,21.7249999999996);
#335=CIRCLE('',#388,22.5249999999996);
#336=CIRCLE('',#390,30.7599999999996);
#337=CIRCLE('',#392,31.7599999999996);
#338=CIRCLE('',#394,31.7599999999996);
#339=CIRCLE('',#396,28.9625471694809);
#340=CIRCLE('',#398,28.7499999999996);
#341=CIRCLE('',#400,27.9999999999996);
#342=CIRCLE('',#402,27.9999999999996);
#343=CIRCLE('',#404,28.7499999999996);
#344=CIRCLE('',#406,28.9625471694796);
#345=CIRCLE('',#408,31.760000000003);
#346=CIRCLE('',#410,31.7599999999996);
#347=CIRCLE('',#412,30.7599999999996);
#348=CIRCLE('',#414,22.3749999999996);
#349=CIRCLE('',#416,21.8749999999996);
#350=CIRCLE('',#418,21.8749999999996);
#351=PRESENTATION_LAYER_ASSIGNMENT('1','Layer 1',(#361,#28));
#352=STYLED_ITEM('',(#354),#361);
#353=STYLED_ITEM('',(#355),#28);
#354=PRESENTATION_STYLE_ASSIGNMENT((#356));
#355=PRESENTATION_STYLE_ASSIGNMENT((#23));
#356=CURVE_STYLE('',#359,POSITIVE_LENGTH_MEASURE(0.176388888888889),#357);
#357=COLOUR_RGB('Deep Blue',0.0,0.0,0.752941176470588);
#358=COLOUR_RGB('Medium Gray',0.490196078431373,0.490196078431373,0.490196078431373);
#359=DRAUGHTING_PRE_DEFINED_CURVE_FONT('continuous');
#360=AXIS2_PLACEMENT_3D('',#543,#421,#422);
#361=AXIS2_PLACEMENT_3D('',#544,#423,#424);
#362=AXIS2_PLACEMENT_3D('',#545,#425,#426);
#363=AXIS2_PLACEMENT_3D('',#547,#427,#428);
#364=AXIS2_PLACEMENT_3D('',#549,#429,#430);
#365=AXIS2_PLACEMENT_3D('',#550,#431,#432);
#366=AXIS2_PLACEMENT_3D('',#552,#433,#434);
#367=AXIS2_PLACEMENT_3D('',#553,#435,#436);
#368=AXIS2_PLACEMENT_3D('',#554,#437,#438);
#369=AXIS2_PLACEMENT_3D('',#556,#439,#440);
#370=AXIS2_PLACEMENT_3D('',#557,#441,#442);
#371=AXIS2_PLACEMENT_3D('',#559,#443,#444);
#372=AXIS2_PLACEMENT_3D('',#560,#445,#446);
#373=AXIS2_PLACEMENT_3D('',#562,#447,#448);
#374=AXIS2_PLACEMENT_3D('',#563,#449,#450);
#375=AXIS2_PLACEMENT_3D('',#565,#451,#452);
#376=AXIS2_PLACEMENT_3D('',#566,#453,#454);
#377=AXIS2_PLACEMENT_3D('',#568,#455,#456);
#378=AXIS2_PLACEMENT_3D('',#569,#457,#458);
#379=AXIS2_PLACEMENT_3D('',#571,#459,#460);
#380=AXIS2_PLACEMENT_3D('',#572,#461,#462);
#381=AXIS2_PLACEMENT_3D('',#574,#463,#464);
#382=AXIS2_PLACEMENT_3D('',#575,#465,#466);
#383=AXIS2_PLACEMENT_3D('',#577,#467,#468);
#384=AXIS2_PLACEMENT_3D('',#578,#469,#470);
#385=AXIS2_PLACEMENT_3D('',#580,#471,#472);
#386=AXIS2_PLACEMENT_3D('',#581,#473,#474);
#387=AXIS2_PLACEMENT_3D('',#583,#475,#476);
#388=AXIS2_PLACEMENT_3D('',#584,#477,#478);
#389=AXIS2_PLACEMENT_3D('',#586,#479,#480);
#390=AXIS2_PLACEMENT_3D('',#587,#481,#482);
#391=AXIS2_PLACEMENT_3D('',#589,#483,#484);
#392=AXIS2_PLACEMENT_3D('',#590,#485,#486);
#393=AXIS2_PLACEMENT_3D('',#592,#487,#488);
#394=AXIS2_PLACEMENT_3D('',#593,#489,#490);
#395=AXIS2_PLACEMENT_3D('',#595,#491,#492);
#396=AXIS2_PLACEMENT_3D('',#596,#493,#494);
#397=AXIS2_PLACEMENT_3D('',#598,#495,#496);
#398=AXIS2_PLACEMENT_3D('',#599,#497,#498);
#399=AXIS2_PLACEMENT_3D('',#601,#499,#500);
#400=AXIS2_PLACEMENT_3D('',#602,#501,#502);
#401=AXIS2_PLACEMENT_3D('',#604,#503,#504);
#402=AXIS2_PLACEMENT_3D('',#605,#505,#506);
#403=AXIS2_PLACEMENT_3D('',#607,#507,#508);
#404=AXIS2_PLACEMENT_3D('',#608,#509,#510);
#405=AXIS2_PLACEMENT_3D('',#610,#511,#512);
#406=AXIS2_PLACEMENT_3D('',#611,#513,#514);
#407=AXIS2_PLACEMENT_3D('',#613,#515,#516);
#408=AXIS2_PLACEMENT_3D('',#614,#517,#518);
#409=AXIS2_PLACEMENT_3D('',#616,#519,#520);
#410=AXIS2_PLACEMENT_3D('',#617,#521,#522);
#411=AXIS2_PLACEMENT_3D('',#619,#523,#524);
#412=AXIS2_PLACEMENT_3D('',#620,#525,#526);
#413=AXIS2_PLACEMENT_3D('',#622,#527,#528);
#414=AXIS2_PLACEMENT_3D('',#623,#529,#530);
#415=AXIS2_PLACEMENT_3D('',#625,#531,#532);
#416=AXIS2_PLACEMENT_3D('',#626,#533,#534);
#417=AXIS2_PLACEMENT_3D('',#628,#535,#536);
#418=AXIS2_PLACEMENT_3D('',#629,#537,#538);
#419=AXIS2_PLACEMENT_3D('',#631,#539,#540);
#420=AXIS2_PLACEMENT_3D('',#632,#541,#542);
#421=DIRECTION('',(0.0,0.0,1.0));
#422=DIRECTION('',(1.0,0.0,0.0));
#423=DIRECTION('',(0.0,0.0,1.0));
#424=DIRECTION('',(1.0,0.0,0.0));
#425=DIRECTION('',(0.0,0.0,-1.0));
#426=DIRECTION('',(-1.0,0.0,0.0));
#427=DIRECTION('',(0.0,0.0,-1.0));
#428=DIRECTION('',(-1.0,0.0,0.0));
#429=DIRECTION('',(0.0,0.0,-1.0));
#430=DIRECTION('',(-1.0,0.0,2.47819012511342E-16));
#431=DIRECTION('',(0.0,0.0,-1.0));
#432=DIRECTION('',(-1.0,0.0,0.0));
#433=DIRECTION('',(0.0,0.0,-1.0));
#434=DIRECTION('',(-1.0,0.0,0.0));
#435=DIRECTION('',(0.0,0.0,1.0));
#436=DIRECTION('',(1.0,0.0,0.0));
#437=DIRECTION('',(0.0,0.0,-1.0));
#438=DIRECTION('',(-1.0,0.0,0.0));
#439=DIRECTION('',(0.0,0.0,-1.0));
#440=DIRECTION('',(-1.0,0.0,0.0));
#441=DIRECTION('',(0.0,0.0,-1.0));
#442=DIRECTION('',(-1.0,0.0,0.0));
#443=DIRECTION('',(0.0,0.0,1.0));
#444=DIRECTION('',(1.0,0.0,2.32917992359856E-17));
#445=DIRECTION('',(0.0,0.0,-1.0));
#446=DIRECTION('',(-1.0,0.0,0.0));
#447=DIRECTION('',(0.0,0.0,-1.0));
#448=DIRECTION('',(-1.0,0.0,0.0));
#449=DIRECTION('',(0.0,0.0,-1.0));
#450=DIRECTION('',(-1.0,0.0,0.0));
#451=DIRECTION('',(0.0,0.0,-1.0));
#452=DIRECTION('',(-1.0,0.0,0.0));
#453=DIRECTION('',(0.0,0.0,-1.0));
#454=DIRECTION('',(-1.0,0.0,0.0));
#455=DIRECTION('',(0.0,0.0,-1.0));
#456=DIRECTION('',(-1.0,0.0,0.0));
#457=DIRECTION('',(0.0,0.0,-1.0));
#458=DIRECTION('',(-1.0,0.0,0.0));
#459=DIRECTION('',(0.0,0.0,-1.0));
#460=DIRECTION('',(-1.0,0.0,0.0));
#461=DIRECTION('',(0.0,0.0,-1.0));
#462=DIRECTION('',(-1.0,0.0,0.0));
#463=DIRECTION('',(0.0,0.0,-1.0));
#464=DIRECTION('',(-1.0,0.0,0.0));
#465=DIRECTION('',(0.0,0.0,-1.0));
#466=DIRECTION('',(-1.0,0.0,0.0));
#467=DIRECTION('',(0.0,0.0,1.0));
#468=DIRECTION('',(1.0,0.0,0.0));
#469=DIRECTION('',(0.0,0.0,-1.0));
#470=DIRECTION('',(-1.0,0.0,0.0));
#471=DIRECTION('',(0.0,0.0,-1.0));
#472=DIRECTION('',(-1.0,0.0,0.0));
#473=DIRECTION('',(0.0,0.0,-1.0));
#474=DIRECTION('',(-1.0,0.0,0.0));
#475=DIRECTION('',(0.0,0.0,-1.0));
#476=DIRECTION('',(-1.0,0.0,0.0));
#477=DIRECTION('',(0.0,0.0,-1.0));
#478=DIRECTION('',(-1.0,0.0,0.0));
#479=DIRECTION('',(0.0,0.0,-1.0));
#480=DIRECTION('',(-1.0,0.0,0.0));
#481=DIRECTION('',(0.0,0.0,-1.0));
#482=DIRECTION('',(-1.0,0.0,0.0));
#483=DIRECTION('',(0.0,0.0,-1.0));
#484=DIRECTION('',(-1.0,0.0,0.0));
#485=DIRECTION('',(0.0,0.0,-1.0));
#486=DIRECTION('',(-1.0,0.0,0.0));
#487=DIRECTION('',(0.0,0.0,-1.0));
#488=DIRECTION('',(-1.0,0.0,0.0));
#489=DIRECTION('',(0.0,0.0,-1.0));
#490=DIRECTION('',(-1.0,0.0,0.0));
#491=DIRECTION('',(0.0,0.0,-1.0));
#492=DIRECTION('',(-1.0,0.0,0.0));
#493=DIRECTION('',(0.0,0.0,-1.0));
#494=DIRECTION('',(-1.0,0.0,0.0));
#495=DIRECTION('',(0.0,0.0,-1.0));
#496=DIRECTION('',(-1.0,0.0,-3.1472282057284E-17));
#497=DIRECTION('',(0.0,0.0,-1.0));
#498=DIRECTION('',(-1.0,0.0,0.0));
#499=DIRECTION('',(0.0,0.0,1.0));
#500=DIRECTION('',(1.0,0.0,0.0));
#501=DIRECTION('',(0.0,0.0,-1.0));
#502=DIRECTION('',(-1.0,0.0,0.0));
#503=DIRECTION('',(0.0,0.0,-1.0));
#504=DIRECTION('',(-1.0,0.0,0.0));
#505=DIRECTION('',(0.0,0.0,-1.0));
#506=DIRECTION('',(-1.0,0.0,0.0));
#507=DIRECTION('',(0.0,0.0,-1.0));
#508=DIRECTION('',(-1.0,0.0,0.0));
#509=DIRECTION('',(0.0,0.0,-1.0));
#510=DIRECTION('',(-1.0,0.0,0.0));
#511=DIRECTION('',(0.0,0.0,-1.0));
#512=DIRECTION('',(-1.0,0.0,0.0));
#513=DIRECTION('',(0.0,0.0,-1.0));
#514=DIRECTION('',(-1.0,0.0,0.0));
#515=DIRECTION('',(0.0,0.0,-1.0));
#516=DIRECTION('',(-1.0,0.0,0.0));
#517=DIRECTION('',(0.0,0.0,-1.0));
#518=DIRECTION('',(-1.0,0.0,0.0));
#519=DIRECTION('',(0.0,0.0,1.0));
#520=DIRECTION('',(1.0,0.0,2.36417079469872E-17));
#521=DIRECTION('',(0.0,0.0,-1.0));
#522=DIRECTION('',(-1.0,0.0,0.0));
#523=DIRECTION('',(0.0,0.0,-1.0));
#524=DIRECTION('',(-1.0,0.0,0.0));
#525=DIRECTION('',(0.0,0.0,-1.0));
#526=DIRECTION('',(-1.0,0.0,0.0));
#527=DIRECTION('',(0.0,0.0,-1.0));
#528=DIRECTION('',(-1.0,0.0,0.0));
#529=DIRECTION('',(0.0,0.0,-1.0));
#530=DIRECTION('',(-1.0,0.0,0.0));
#531=DIRECTION('',(0.0,0.0,1.0));
#532=DIRECTION('',(1.0,0.0,0.0));
#533=DIRECTION('',(0.0,0.0,-1.0));
#534=DIRECTION('',(-1.0,0.0,0.0));
#535=DIRECTION('',(0.0,0.0,-1.0));
#536=DIRECTION('',(-1.0,0.0,0.0));
#537=DIRECTION('',(0.0,0.0,-1.0));
#538=DIRECTION('',(-1.0,0.0,0.0));
#539=DIRECTION('',(0.0,0.0,-1.0));
#540=DIRECTION('',(-1.0,0.0,0.0));
#541=DIRECTION('',(0.0,0.0,1.0));
#542=DIRECTION('',(1.0,0.0,-1.91533877020635E-16));
#543=CARTESIAN_POINT('',(0.0,0.0,0.0));
#544=CARTESIAN_POINT('',(4.33431068813661E-13,0.0,-3.19999999999999));
#545=CARTESIAN_POINT('',(4.33431068813661E-13,0.0,67.5871027357089));
#546=CARTESIAN_POINT('',(-12.3677260782114,0.0,67.5871027357089));
#547=CARTESIAN_POINT('',(4.33431068813661E-13,0.0,0.489682333230504));
#548=CARTESIAN_POINT('',(-22.1535820415761,0.0,0.489682333230504));
#549=CARTESIAN_POINT('',(4.33431068813661E-13,0.0,0.489682333230504));
#550=CARTESIAN_POINT('',(4.33431068813661E-13,0.0,68.4));
#551=CARTESIAN_POINT('',(-11.4276713777491,0.0,68.4));
#552=CARTESIAN_POINT('',(4.33680868994202E-13,0.0,67.45));
#553=CARTESIAN_POINT('',(9.730940107676,0.0,68.4));
#554=CARTESIAN_POINT('',(4.33431068813661E-13,0.0,-120.0));
#555=CARTESIAN_POINT('',(-18.4726497308091,0.0,-120.0));
#556=CARTESIAN_POINT('',(10.0,0.0,-120.0));
#557=CARTESIAN_POINT('',(4.33431068813661E-13,0.0,-119.0));
#558=CARTESIAN_POINT('',(-19.0500000000039,0.0,-119.0));
#559=CARTESIAN_POINT('',(4.33431068813661E-13,0.0,-120.0));
#560=CARTESIAN_POINT('',(4.33431068813661E-13,0.0,-60.0));
#561=CARTESIAN_POINT('',(-19.0499999999991,0.0,-60.0));
#562=CARTESIAN_POINT('',(4.33431068813661E-13,0.0,68.4));
#563=CARTESIAN_POINT('',(4.33431068813661E-13,0.0,-60.0));
#564=CARTESIAN_POINT('',(-26.9999999999991,0.0,-60.0));
#565=CARTESIAN_POINT('',(19.05,0.0,-60.0));
#566=CARTESIAN_POINT('',(4.33431068813661E-13,0.0,-59.0));
#567=CARTESIAN_POINT('',(-27.9999999999991,0.0,-59.0));
#568=CARTESIAN_POINT('',(4.33680868994202E-13,0.0,-59.0));
#569=CARTESIAN_POINT('',(4.33431068813661E-13,0.0,-36.55));
#570=CARTESIAN_POINT('',(-27.9999999999991,0.0,-36.55));
#571=CARTESIAN_POINT('',(4.33431068813661E-13,0.0,68.4));
#572=CARTESIAN_POINT('',(4.33431068813661E-13,0.0,-35.55));
#573=CARTESIAN_POINT('',(-26.9999999999991,0.0,-35.55));
#574=CARTESIAN_POINT('',(4.33680868994202E-13,0.0,-36.55));
#575=CARTESIAN_POINT('',(4.33431068813661E-13,0.0,-35.55));
#576=CARTESIAN_POINT('',(-22.5249999999991,0.0,-35.55));
#577=CARTESIAN_POINT('',(27.0,0.0,-35.55));
#578=CARTESIAN_POINT('',(4.33431068813661E-13,0.0,-34.75));
#579=CARTESIAN_POINT('',(-21.7249999999991,0.0,-34.75));
#580=CARTESIAN_POINT('',(4.33680868994202E-13,0.0,-34.75));
#581=CARTESIAN_POINT('',(4.33431068813661E-13,0.0,-19.85));
#582=CARTESIAN_POINT('',(-21.7249999999991,0.0,-19.85));
#583=CARTESIAN_POINT('',(4.33431068813661E-13,0.0,68.4));
#584=CARTESIAN_POINT('',(4.33431068813661E-13,0.0,-19.05));
#585=CARTESIAN_POINT('',(-22.5249999999991,0.0,-19.05));
#586=CARTESIAN_POINT('',(4.33680868994202E-13,0.0,-19.85));
#587=CARTESIAN_POINT('',(4.33431068813661E-13,0.0,-19.05));
#588=CARTESIAN_POINT('',(-30.7599999999991,0.0,-19.05));
#589=CARTESIAN_POINT('',(22.525,0.0,-19.05));
#590=CARTESIAN_POINT('',(4.33431068813661E-13,0.0,-18.05));
#591=CARTESIAN_POINT('',(-31.7599999999991,0.0,-18.05));
#592=CARTESIAN_POINT('',(4.33680868994202E-13,0.0,-18.05));
#593=CARTESIAN_POINT('',(4.33431068813661E-13,0.0,-14.70261014475));
#594=CARTESIAN_POINT('',(-31.7599999999991,0.0,-14.70261014475));
#595=CARTESIAN_POINT('',(4.33431068813661E-13,0.0,68.4));
#596=CARTESIAN_POINT('',(4.33431068813661E-13,0.0,-13.0874999999978));
#597=CARTESIAN_POINT('',(-28.9625471694804,0.0,-13.0874999999978));
#598=CARTESIAN_POINT('',(4.33431068813661E-13,0.0,-14.70261014475));
#599=CARTESIAN_POINT('',(4.33431068813661E-13,0.0,-13.0875));
#600=CARTESIAN_POINT('',(-28.7499999999991,0.0,-13.0875));
#601=CARTESIAN_POINT('',(28.96254716948,0.0,-13.0874999999989));
#602=CARTESIAN_POINT('',(4.33431068813661E-13,0.0,-12.3375));
#603=CARTESIAN_POINT('',(-27.9999999999991,0.0,-12.3375));
#604=CARTESIAN_POINT('',(4.33680868994202E-13,0.0,-12.3375));
#605=CARTESIAN_POINT('',(4.33431068813661E-13,0.0,-10.0125));
#606=CARTESIAN_POINT('',(-27.9999999999991,0.0,-10.0125));
#607=CARTESIAN_POINT('',(4.33431068813661E-13,0.0,68.4));
#608=CARTESIAN_POINT('',(4.33431068813661E-13,0.0,-9.26249999999999));
#609=CARTESIAN_POINT('',(-28.7499999999991,0.0,-9.26249999999999));
#610=CARTESIAN_POINT('',(4.33680868994202E-13,0.0,-10.0125));
#611=CARTESIAN_POINT('',(4.33431068813661E-13,0.0,-9.26249999999999));
#612=CARTESIAN_POINT('',(-28.9625471694791,0.0,-9.26249999999999));
#613=CARTESIAN_POINT('',(28.75,0.0,-9.2625));
#614=CARTESIAN_POINT('',(4.33431068813661E-13,0.0,-7.647389855251));
#615=CARTESIAN_POINT('',(-31.7600000000026,0.0,-7.647389855251));
#616=CARTESIAN_POINT('',(4.33431068813661E-13,0.0,-9.26249999999999));
#617=CARTESIAN_POINT('',(4.33431068813661E-13,0.0,-4.2));
#618=CARTESIAN_POINT('',(-31.7599999999991,0.0,-4.2));
#619=CARTESIAN_POINT('',(4.33431068813661E-13,0.0,68.4));
#620=CARTESIAN_POINT('',(4.33431068813661E-13,0.0,-3.19999999999999));
#621=CARTESIAN_POINT('',(-30.7599999999991,0.0,-3.19999999999999));
#622=CARTESIAN_POINT('',(4.33680868994202E-13,0.0,-4.2));
#623=CARTESIAN_POINT('',(4.33431068813661E-13,0.0,-3.19999999999999));
#624=CARTESIAN_POINT('',(-22.3749999999991,0.0,-3.19999999999999));
#625=CARTESIAN_POINT('',(30.76,0.0,-3.2));
#626=CARTESIAN_POINT('',(4.33431068813661E-13,0.0,-2.69999999999999));
#627=CARTESIAN_POINT('',(-21.8749999999991,0.0,-2.69999999999999));
#628=CARTESIAN_POINT('',(4.33680868994202E-13,0.0,-2.7));
#629=CARTESIAN_POINT('',(4.33431068813661E-13,0.0,-0.549999999999995));
#630=CARTESIAN_POINT('',(-21.8749999999991,0.0,-0.549999999999995));
#631=CARTESIAN_POINT('',(4.33431068813661E-13,0.0,68.4));
#632=CARTESIAN_POINT('',(4.33431068813661E-13,0.0,-0.549999999999995));
#633=MECHANICAL_DESIGN_GEOMETRIC_PRESENTATION_REPRESENTATION('',(#352,#353),#634);
#634=(GEOMETRIC_REPRESENTATION_CONTEXT(3)GLOBAL_UNCERTAINTY_ASSIGNED_CONTEXT((#635))
     GLOBAL_UNIT_ASSIGNED_CONTEXT((#641,#637,#636))REPRESENTATION_CONTEXT('AA3B10-4038060',
     'TOP_LEVEL_ASSEMBLY_PART'));
#635=UNCERTAINTY_MEASURE_WITH_UNIT(LENGTH_MEASURE(2.0E-5),#641,'DISTANCE_ACCURACY_VALUE',
     'Maximum Tolerance applied to model');
#636=(NAMED_UNIT(*)SI_UNIT($,.STERADIAN.)SOLID_ANGLE_UNIT());
#637=(CONVERSION_BASED_UNIT('DEGREE',#639)NAMED_UNIT(*)PLANE_ANGLE_UNIT());
#638=DIMENSIONAL_EXPONENTS(0.0,0.0,0.0,0.0,0.0,0.0,0.0);
#639=PLANE_ANGLE_MEASURE_WITH_UNIT(PLANE_ANGLE_MEASURE(0.0174532925),#640);
#640=(NAMED_UNIT(*)PLANE_ANGLE_UNIT()SI_UNIT($,.RADIAN.));
#641=(LENGTH_UNIT()NAMED_UNIT(*)SI_UNIT(.MILLI.,.METRE.));
#642=CARTESIAN_POINT('',(0.0,0.0,0.0));
#643=DIRECTION('',(0.0,0.0,1.0));
#644=DIRECTION('',(1.0,0.0,0.0));
#645=AXIS2_PLACEMENT_3D('PCS',#642,#643,#644);
#646=CARTESIAN_POINT('',(0.0,0.0,0.0));
#647=DIRECTION('',(0.0,0.0,1.0));
#648=DIRECTION('',(1.0,0.0,0.0));
#649=AXIS2_PLACEMENT_3D('MCS',#646,#647,#648);
#650=CARTESIAN_POINT('',(0.0,0.0,-60.0));
#651=DIRECTION('',(0.0,0.0,1.0));
#652=DIRECTION('',(1.0,0.0,0.0));
#653=AXIS2_PLACEMENT_3D('CSW',#650,#651,#652);
#654=CONSTRUCTIVE_GEOMETRY_REPRESENTATION('supplemental geometry',(#645,#649,#653),
     #634);
#655=CONSTRUCTIVE_GEOMETRY_REPRESENTATION_RELATIONSHIP('supplemental geometry',$,
     #22,#654);
ENDSEC;
END-ISO-10303-21;
