ISO-10303-21;
HEADER;
/* Generated by software containing ST-Developer
 * from STEP Tools, Inc. (www.steptools.com) 
 */
/* OPTION: using custom schema-name function */

FILE_DESCRIPTION(
/* description */ (''),
/* implementation_level */ '2;1');

FILE_NAME(
/* name */ '1593430982835.stp',
/* time_stamp */ '2020-06-29T13:43:07+02:00',
/* author */ (''),
/* organization */ ('SMS'),
/* preprocessor_version */ 'ST-DEVELOPER v16.7',
/* originating_system */ 'SIEMENS PLM Software NX 12.0',
/* authorisation */ '');

FILE_SCHEMA (('AUTOMOTIVE_DESIGN { 1 0 10303 214 3 1 1 1 }'));
ENDSEC;

DATA;
#10=CONSTRUCTIVE_GEOMETRY_REPRESENTATION_RELATIONSHIP(
'supplemental geometry','',#26,#11);
#11=CONSTRUCTIVE_GEOMETRY_REPRESENTATION('supplemental geometry',(#232,
#233,#234),#390);
#12=GEOMETRICALLY_BOUNDED_WIREFRAME_SHAPE_REPRESENTATION(
'200923040mod000_01-None',(#27),#390);
#13=SHAPE_REPRESENTATION_RELATIONSHIP('None',
'relationship between 200923040mod000_01-None and 200923040mod000_01-N
one',#26,#15);
#14=SHAPE_REPRESENTATION_RELATIONSHIP('None',
'relationship between 200923040mod000_01-None and 200923040mod000_01-N
one',#26,#12);
#15=ADVANCED_BREP_SHAPE_REPRESENTATION('200923040mod000_01-None',(#33),
#390);
#16=SHAPE_DEFINITION_REPRESENTATION(#17,#26);
#17=PRODUCT_DEFINITION_SHAPE('','',#18);
#18=PRODUCT_DEFINITION(' ','',#20,#19);
#19=PRODUCT_DEFINITION_CONTEXT('part definition',#25,'design');
#20=PRODUCT_DEFINITION_FORMATION_WITH_SPECIFIED_SOURCE(' ',' ',#22,
 .NOT_KNOWN.);
#21=PRODUCT_RELATED_PRODUCT_CATEGORY('part','',(#22));
#22=PRODUCT('200923040mod000_01','200923040mod000_01',' ',(#23));
#23=PRODUCT_CONTEXT(' ',#25,'mechanical');
#24=APPLICATION_PROTOCOL_DEFINITION('international standard',
'automotive_design',2010,#25);
#25=APPLICATION_CONTEXT(
'core data for automotive mechanical design processes');
#26=SHAPE_REPRESENTATION('200923040mod000_01-None',(#231),#390);
#27=GEOMETRIC_CURVE_SET('None',(#337,#338,#339));
#28=SURFACE_STYLE_USAGE(.BOTH.,#29);
#29=SURFACE_SIDE_STYLE('',(#30));
#30=SURFACE_STYLE_FILL_AREA(#31);
#31=FILL_AREA_STYLE('',(#32));
#32=FILL_AREA_STYLE_COLOUR('',#230);
#33=MANIFOLD_SOLID_BREP('NOCUT',#34);
#34=CLOSED_SHELL('',(#74,#75,#76,#77,#78,#79,#80,#81,#82,#83,#84,#85,#86,
#87,#88,#89));
#35=CONICAL_SURFACE('',#244,47.625,29.9966677696885);
#36=CONICAL_SURFACE('',#252,49.21,60.0000000000003);
#37=CONICAL_SURFACE('',#256,45.645,59.9999999999999);
#38=CONICAL_SURFACE('',#264,34.925,8.29722222222182);
#39=CYLINDRICAL_SURFACE('',#238,19.0435);
#40=CYLINDRICAL_SURFACE('',#242,47.625);
#41=CYLINDRICAL_SURFACE('',#246,34.925);
#42=CYLINDRICAL_SURFACE('',#250,49.21);
#43=CYLINDRICAL_SURFACE('',#254,45.645);
#44=CYLINDRICAL_SURFACE('',#258,49.21);
#45=CYLINDRICAL_SURFACE('',#262,34.925);
#46=FACE_BOUND('',#98,.T.);
#47=FACE_BOUND('',#99,.T.);
#48=FACE_BOUND('',#100,.T.);
#49=FACE_BOUND('',#101,.T.);
#50=FACE_BOUND('',#102,.T.);
#51=FACE_BOUND('',#103,.T.);
#52=FACE_BOUND('',#104,.T.);
#53=FACE_BOUND('',#105,.T.);
#54=FACE_BOUND('',#106,.T.);
#55=FACE_BOUND('',#107,.T.);
#56=FACE_BOUND('',#108,.T.);
#57=FACE_BOUND('',#109,.T.);
#58=FACE_BOUND('',#110,.T.);
#59=FACE_BOUND('',#111,.T.);
#60=FACE_BOUND('',#112,.T.);
#61=FACE_BOUND('',#113,.T.);
#62=FACE_BOUND('',#114,.T.);
#63=FACE_BOUND('',#115,.T.);
#64=FACE_BOUND('',#116,.T.);
#65=FACE_BOUND('',#117,.T.);
#66=FACE_BOUND('',#118,.T.);
#67=FACE_BOUND('',#119,.T.);
#68=FACE_BOUND('',#120,.T.);
#69=FACE_BOUND('',#121,.T.);
#70=FACE_BOUND('',#122,.T.);
#71=FACE_BOUND('',#123,.T.);
#72=FACE_BOUND('',#124,.T.);
#73=FACE_BOUND('',#125,.T.);
#74=ADVANCED_FACE('',(#95),#90,.T.);
#75=ADVANCED_FACE('',(#46,#47),#39,.T.);
#76=ADVANCED_FACE('',(#48,#49),#91,.T.);
#77=ADVANCED_FACE('',(#50,#51),#40,.T.);
#78=ADVANCED_FACE('',(#52,#53),#35,.T.);
#79=ADVANCED_FACE('',(#54,#55),#41,.T.);
#80=ADVANCED_FACE('',(#56,#57),#92,.T.);
#81=ADVANCED_FACE('',(#58,#59),#42,.T.);
#82=ADVANCED_FACE('',(#60,#61),#36,.T.);
#83=ADVANCED_FACE('',(#62,#63),#43,.T.);
#84=ADVANCED_FACE('',(#64,#65),#37,.T.);
#85=ADVANCED_FACE('',(#66,#67),#44,.T.);
#86=ADVANCED_FACE('',(#68,#69),#93,.T.);
#87=ADVANCED_FACE('',(#70,#71),#45,.T.);
#88=ADVANCED_FACE('',(#72,#73),#38,.T.);
#89=ADVANCED_FACE('',(#96),#94,.T.);
#90=PLANE('',#236);
#91=PLANE('',#240);
#92=PLANE('',#248);
#93=PLANE('',#260);
#94=PLANE('',#265);
#95=FACE_OUTER_BOUND('',#97,.T.);
#96=FACE_OUTER_BOUND('',#126,.T.);
#97=EDGE_LOOP('',(#127));
#98=EDGE_LOOP('',(#128));
#99=EDGE_LOOP('',(#129));
#100=EDGE_LOOP('',(#130));
#101=EDGE_LOOP('',(#131));
#102=EDGE_LOOP('',(#132));
#103=EDGE_LOOP('',(#133));
#104=EDGE_LOOP('',(#134));
#105=EDGE_LOOP('',(#135));
#106=EDGE_LOOP('',(#136));
#107=EDGE_LOOP('',(#137));
#108=EDGE_LOOP('',(#138));
#109=EDGE_LOOP('',(#139));
#110=EDGE_LOOP('',(#140));
#111=EDGE_LOOP('',(#141));
#112=EDGE_LOOP('',(#142));
#113=EDGE_LOOP('',(#143));
#114=EDGE_LOOP('',(#144));
#115=EDGE_LOOP('',(#145));
#116=EDGE_LOOP('',(#146));
#117=EDGE_LOOP('',(#147));
#118=EDGE_LOOP('',(#148));
#119=EDGE_LOOP('',(#149));
#120=EDGE_LOOP('',(#150));
#121=EDGE_LOOP('',(#151));
#122=EDGE_LOOP('',(#152));
#123=EDGE_LOOP('',(#153));
#124=EDGE_LOOP('',(#154));
#125=EDGE_LOOP('',(#155));
#126=EDGE_LOOP('',(#156));
#127=ORIENTED_EDGE('',*,*,#172,.T.);
#128=ORIENTED_EDGE('',*,*,#173,.T.);
#129=ORIENTED_EDGE('',*,*,#172,.F.);
#130=ORIENTED_EDGE('',*,*,#174,.T.);
#131=ORIENTED_EDGE('',*,*,#173,.F.);
#132=ORIENTED_EDGE('',*,*,#175,.T.);
#133=ORIENTED_EDGE('',*,*,#174,.F.);
#134=ORIENTED_EDGE('',*,*,#176,.T.);
#135=ORIENTED_EDGE('',*,*,#175,.F.);
#136=ORIENTED_EDGE('',*,*,#177,.T.);
#137=ORIENTED_EDGE('',*,*,#176,.F.);
#138=ORIENTED_EDGE('',*,*,#178,.T.);
#139=ORIENTED_EDGE('',*,*,#177,.F.);
#140=ORIENTED_EDGE('',*,*,#179,.T.);
#141=ORIENTED_EDGE('',*,*,#178,.F.);
#142=ORIENTED_EDGE('',*,*,#180,.T.);
#143=ORIENTED_EDGE('',*,*,#179,.F.);
#144=ORIENTED_EDGE('',*,*,#181,.T.);
#145=ORIENTED_EDGE('',*,*,#180,.F.);
#146=ORIENTED_EDGE('',*,*,#182,.T.);
#147=ORIENTED_EDGE('',*,*,#181,.F.);
#148=ORIENTED_EDGE('',*,*,#183,.T.);
#149=ORIENTED_EDGE('',*,*,#182,.F.);
#150=ORIENTED_EDGE('',*,*,#184,.T.);
#151=ORIENTED_EDGE('',*,*,#183,.F.);
#152=ORIENTED_EDGE('',*,*,#185,.T.);
#153=ORIENTED_EDGE('',*,*,#184,.F.);
#154=ORIENTED_EDGE('',*,*,#186,.T.);
#155=ORIENTED_EDGE('',*,*,#185,.F.);
#156=ORIENTED_EDGE('',*,*,#186,.F.);
#157=VERTEX_POINT('',#344);
#158=VERTEX_POINT('',#347);
#159=VERTEX_POINT('',#350);
#160=VERTEX_POINT('',#353);
#161=VERTEX_POINT('',#356);
#162=VERTEX_POINT('',#359);
#163=VERTEX_POINT('',#362);
#164=VERTEX_POINT('',#365);
#165=VERTEX_POINT('',#368);
#166=VERTEX_POINT('',#371);
#167=VERTEX_POINT('',#374);
#168=VERTEX_POINT('',#377);
#169=VERTEX_POINT('',#380);
#170=VERTEX_POINT('',#383);
#171=VERTEX_POINT('',#386);
#172=EDGE_CURVE('',#157,#157,#187,.T.);
#173=EDGE_CURVE('',#158,#158,#188,.T.);
#174=EDGE_CURVE('',#159,#159,#189,.T.);
#175=EDGE_CURVE('',#160,#160,#190,.T.);
#176=EDGE_CURVE('',#161,#161,#191,.T.);
#177=EDGE_CURVE('',#162,#162,#192,.T.);
#178=EDGE_CURVE('',#163,#163,#193,.T.);
#179=EDGE_CURVE('',#164,#164,#194,.T.);
#180=EDGE_CURVE('',#165,#165,#195,.T.);
#181=EDGE_CURVE('',#166,#166,#196,.T.);
#182=EDGE_CURVE('',#167,#167,#197,.T.);
#183=EDGE_CURVE('',#168,#168,#198,.T.);
#184=EDGE_CURVE('',#169,#169,#199,.T.);
#185=EDGE_CURVE('',#170,#170,#200,.T.);
#186=EDGE_CURVE('',#171,#171,#201,.T.);
#187=CIRCLE('',#235,19.0435);
#188=CIRCLE('',#237,19.0435);
#189=CIRCLE('',#239,47.625);
#190=CIRCLE('',#241,47.625);
#191=CIRCLE('',#243,34.925);
#192=CIRCLE('',#245,34.925);
#193=CIRCLE('',#247,49.21);
#194=CIRCLE('',#249,49.21);
#195=CIRCLE('',#251,45.645);
#196=CIRCLE('',#253,45.645);
#197=CIRCLE('',#255,49.21);
#198=CIRCLE('',#257,49.21);
#199=CIRCLE('',#259,34.925);
#200=CIRCLE('',#261,34.925);
#201=CIRCLE('',#263,20.1081934317888);
#202=CURVE_STYLE('',#205,POSITIVE_LENGTH_MEASURE(0.18),#229);
#203=CURVE_STYLE('',#206,POSITIVE_LENGTH_MEASURE(0.18),#229);
#204=CURVE_STYLE('',#207,POSITIVE_LENGTH_MEASURE(0.18),#229);
#205=DRAUGHTING_PRE_DEFINED_CURVE_FONT('continuous');
#206=DRAUGHTING_PRE_DEFINED_CURVE_FONT('continuous');
#207=DRAUGHTING_PRE_DEFINED_CURVE_FONT('continuous');
#208=PRESENTATION_LAYER_ASSIGNMENT('1','Layer 1',(#337,#338,#339,#232,#233,
#234,#33));
#209=STYLED_ITEM('',(#216),#337);
#210=STYLED_ITEM('',(#217),#338);
#211=STYLED_ITEM('',(#218),#339);
#212=STYLED_ITEM('',(#219),#232);
#213=STYLED_ITEM('',(#220),#233);
#214=STYLED_ITEM('',(#221),#234);
#215=STYLED_ITEM('',(#222),#33);
#216=PRESENTATION_STYLE_ASSIGNMENT((#223));
#217=PRESENTATION_STYLE_ASSIGNMENT((#224));
#218=PRESENTATION_STYLE_ASSIGNMENT((#225));
#219=PRESENTATION_STYLE_ASSIGNMENT((#202));
#220=PRESENTATION_STYLE_ASSIGNMENT((#203));
#221=PRESENTATION_STYLE_ASSIGNMENT((#204));
#222=PRESENTATION_STYLE_ASSIGNMENT((#28));
#223=POINT_STYLE('',#226,POSITIVE_LENGTH_MEASURE(3.),#229);
#224=POINT_STYLE('',#227,POSITIVE_LENGTH_MEASURE(3.),#229);
#225=POINT_STYLE('',#228,POSITIVE_LENGTH_MEASURE(3.),#229);
#226=PRE_DEFINED_POINT_MARKER_SYMBOL('plus');
#227=PRE_DEFINED_POINT_MARKER_SYMBOL('plus');
#228=PRE_DEFINED_POINT_MARKER_SYMBOL('plus');
#229=COLOUR_RGB('Strong Stone',0.576470588235294,0.54508278019379,0.392156862745098);
#230=COLOUR_RGB('Medium Gray',0.501960784313725,0.501960784313725,0.501960784313725);
#231=AXIS2_PLACEMENT_3D('',#336,#266,#267);
#232=AXIS2_PLACEMENT_3D('PCS',#340,#268,#269);
#233=AXIS2_PLACEMENT_3D('MCS',#341,#270,#271);
#234=AXIS2_PLACEMENT_3D('CSW',#342,#272,#273);
#235=AXIS2_PLACEMENT_3D('',#343,#274,#275);
#236=AXIS2_PLACEMENT_3D('',#345,#276,#277);
#237=AXIS2_PLACEMENT_3D('',#346,#278,#279);
#238=AXIS2_PLACEMENT_3D('',#348,#280,#281);
#239=AXIS2_PLACEMENT_3D('',#349,#282,#283);
#240=AXIS2_PLACEMENT_3D('',#351,#284,#285);
#241=AXIS2_PLACEMENT_3D('',#352,#286,#287);
#242=AXIS2_PLACEMENT_3D('',#354,#288,#289);
#243=AXIS2_PLACEMENT_3D('',#355,#290,#291);
#244=AXIS2_PLACEMENT_3D('',#357,#292,#293);
#245=AXIS2_PLACEMENT_3D('',#358,#294,#295);
#246=AXIS2_PLACEMENT_3D('',#360,#296,#297);
#247=AXIS2_PLACEMENT_3D('',#361,#298,#299);
#248=AXIS2_PLACEMENT_3D('',#363,#300,#301);
#249=AXIS2_PLACEMENT_3D('',#364,#302,#303);
#250=AXIS2_PLACEMENT_3D('',#366,#304,#305);
#251=AXIS2_PLACEMENT_3D('',#367,#306,#307);
#252=AXIS2_PLACEMENT_3D('',#369,#308,#309);
#253=AXIS2_PLACEMENT_3D('',#370,#310,#311);
#254=AXIS2_PLACEMENT_3D('',#372,#312,#313);
#255=AXIS2_PLACEMENT_3D('',#373,#314,#315);
#256=AXIS2_PLACEMENT_3D('',#375,#316,#317);
#257=AXIS2_PLACEMENT_3D('',#376,#318,#319);
#258=AXIS2_PLACEMENT_3D('',#378,#320,#321);
#259=AXIS2_PLACEMENT_3D('',#379,#322,#323);
#260=AXIS2_PLACEMENT_3D('',#381,#324,#325);
#261=AXIS2_PLACEMENT_3D('',#382,#326,#327);
#262=AXIS2_PLACEMENT_3D('',#384,#328,#329);
#263=AXIS2_PLACEMENT_3D('',#385,#330,#331);
#264=AXIS2_PLACEMENT_3D('',#387,#332,#333);
#265=AXIS2_PLACEMENT_3D('',#388,#334,#335);
#266=DIRECTION('',(0.,0.,1.));
#267=DIRECTION('',(1.,0.,0.));
#268=DIRECTION('',(0.,0.,1.));
#269=DIRECTION('',(1.,0.,0.));
#270=DIRECTION('',(0.,0.,1.));
#271=DIRECTION('',(1.,0.,0.));
#272=DIRECTION('',(0.,0.,1.));
#273=DIRECTION('',(1.,0.,0.));
#274=DIRECTION('',(0.,0.,-1.));
#275=DIRECTION('',(-1.,0.,0.));
#276=DIRECTION('',(0.,0.,-1.));
#277=DIRECTION('',(-1.,0.,0.));
#278=DIRECTION('',(0.,0.,-1.));
#279=DIRECTION('',(-1.,0.,0.));
#280=DIRECTION('',(0.,0.,-1.));
#281=DIRECTION('',(-1.,0.,0.));
#282=DIRECTION('',(0.,0.,-1.));
#283=DIRECTION('',(-1.,0.,0.));
#284=DIRECTION('',(0.,0.,-1.));
#285=DIRECTION('',(-1.,0.,0.));
#286=DIRECTION('',(0.,0.,-1.));
#287=DIRECTION('',(-1.,0.,0.));
#288=DIRECTION('',(0.,0.,-1.));
#289=DIRECTION('',(-1.,0.,0.));
#290=DIRECTION('',(0.,0.,-1.));
#291=DIRECTION('',(-1.,0.,0.));
#292=DIRECTION('',(0.,0.,-1.));
#293=DIRECTION('',(-1.,0.,-1.77664756354701E-16));
#294=DIRECTION('',(0.,0.,-1.));
#295=DIRECTION('',(-1.,0.,0.));
#296=DIRECTION('',(0.,0.,-1.));
#297=DIRECTION('',(-1.,0.,0.));
#298=DIRECTION('',(0.,0.,-1.));
#299=DIRECTION('',(-1.,0.,0.));
#300=DIRECTION('',(0.,0.,-1.));
#301=DIRECTION('',(-1.,0.,0.));
#302=DIRECTION('',(0.,0.,-1.));
#303=DIRECTION('',(-1.,0.,0.));
#304=DIRECTION('',(0.,0.,-1.));
#305=DIRECTION('',(-1.,0.,0.));
#306=DIRECTION('',(0.,0.,-1.));
#307=DIRECTION('',(-1.,0.,0.));
#308=DIRECTION('',(0.,0.,-1.));
#309=DIRECTION('',(-1.,0.,5.45369404872755E-17));
#310=DIRECTION('',(0.,0.,-1.));
#311=DIRECTION('',(-1.,0.,0.));
#312=DIRECTION('',(0.,0.,-1.));
#313=DIRECTION('',(-1.,0.,0.));
#314=DIRECTION('',(0.,0.,-1.));
#315=DIRECTION('',(-1.,0.,0.));
#316=DIRECTION('',(0.,0.,1.));
#317=DIRECTION('',(1.,0.,1.5613231182441E-17));
#318=DIRECTION('',(0.,0.,-1.));
#319=DIRECTION('',(-1.,0.,0.));
#320=DIRECTION('',(0.,0.,-1.));
#321=DIRECTION('',(-1.,0.,0.));
#322=DIRECTION('',(0.,0.,-1.));
#323=DIRECTION('',(-1.,0.,0.));
#324=DIRECTION('',(0.,0.,1.));
#325=DIRECTION('',(1.,0.,0.));
#326=DIRECTION('',(0.,0.,-1.));
#327=DIRECTION('',(-1.,0.,0.));
#328=DIRECTION('',(0.,0.,-1.));
#329=DIRECTION('',(-1.,0.,0.));
#330=DIRECTION('',(0.,0.,-1.));
#331=DIRECTION('',(-1.,0.,0.));
#332=DIRECTION('',(0.,0.,-1.));
#333=DIRECTION('',(-1.,0.,0.));
#334=DIRECTION('',(0.,0.,1.));
#335=DIRECTION('',(1.,0.,0.));
#336=CARTESIAN_POINT('',(0.,0.,0.));
#337=CARTESIAN_POINT('',(0.,0.,0.));
#338=CARTESIAN_POINT('',(0.,0.,0.));
#339=CARTESIAN_POINT('',(-1.08940405409214E-12,-1.79366203433577E-43,-101.6));
#340=CARTESIAN_POINT('',(0.,0.,0.));
#341=CARTESIAN_POINT('',(0.,0.,0.));
#342=CARTESIAN_POINT('',(-1.08940405409214E-12,-1.79366203433577E-43,-101.6));
#343=CARTESIAN_POINT('',(-1.08940405409214E-12,-1.79366203433577E-43,-125.4));
#344=CARTESIAN_POINT('',(-19.0435000000011,-1.79366203433577E-43,-125.4));
#345=CARTESIAN_POINT('',(-1.52544143240505E-13,0.,-125.4));
#346=CARTESIAN_POINT('',(-1.08940405409214E-12,-1.79366203433577E-43,-101.6));
#347=CARTESIAN_POINT('',(-19.0435000000011,-1.79366203433577E-43,-101.6));
#348=CARTESIAN_POINT('',(-1.08940405409214E-12,-1.79366203433577E-43,101.6));
#349=CARTESIAN_POINT('',(-1.08940405409214E-12,-1.79366203433577E-43,-101.6));
#350=CARTESIAN_POINT('',(-47.6250000000011,-1.79366203433577E-43,-101.6));
#351=CARTESIAN_POINT('',(-3.42336604044523E-13,19.0435,-101.6));
#352=CARTESIAN_POINT('',(-1.08940405409214E-12,-1.79366203433577E-43,-66.45));
#353=CARTESIAN_POINT('',(-47.6250000000011,-1.79366203433577E-43,-66.45));
#354=CARTESIAN_POINT('',(-1.08940405409214E-12,-1.79366203433577E-43,101.6));
#355=CARTESIAN_POINT('',(-1.08940405409214E-12,-1.79366203433577E-43,-44.45));
#356=CARTESIAN_POINT('',(-34.925000000001,-1.79366203433577E-43,-44.45));
#357=CARTESIAN_POINT('',(-1.08940405409214E-12,-1.79366203433577E-43,-66.45));
#358=CARTESIAN_POINT('',(-1.08940405409214E-12,-1.79366203433577E-43,-19.05));
#359=CARTESIAN_POINT('',(-34.9250000000011,-1.79366203433577E-43,-19.05));
#360=CARTESIAN_POINT('',(-1.08940405409214E-12,-1.79366203433577E-43,101.6));
#361=CARTESIAN_POINT('',(-1.08940405409214E-12,-1.79366203433577E-43,-19.0500000000001));
#362=CARTESIAN_POINT('',(-49.2100000000011,-1.79366203433577E-43,-19.0500000000001));
#363=CARTESIAN_POINT('',(-7.95564014629565E-13,34.925,-19.05));
#364=CARTESIAN_POINT('',(-1.08940405409214E-12,-1.79366203433577E-43,-14.6397233934027));
#365=CARTESIAN_POINT('',(-49.2100000000011,-1.79366203433577E-43,-14.6397233934027));
#366=CARTESIAN_POINT('',(-1.08940405409214E-12,-1.79366203433577E-43,101.6));
#367=CARTESIAN_POINT('',(-1.08940405409214E-12,-1.79366203433577E-43,-12.5814696837417));
#368=CARTESIAN_POINT('',(-45.6450000000011,-1.79366203433577E-43,-12.5814696837417));
#369=CARTESIAN_POINT('',(-1.08940405409214E-12,-1.79366203433577E-43,-14.6397233934027));
#370=CARTESIAN_POINT('',(-1.08940405409214E-12,-1.79366203433577E-43,-9.64853031625837));
#371=CARTESIAN_POINT('',(-45.6450000000011,-1.79366203433577E-43,-9.64853031625837));
#372=CARTESIAN_POINT('',(-1.08940405409214E-12,-1.79366203433577E-43,101.6));
#373=CARTESIAN_POINT('',(-1.08940405409214E-12,-1.79366203433577E-43,-7.59027660659735));
#374=CARTESIAN_POINT('',(-49.2100000000011,-1.79366203433577E-43,-7.59027660659735));
#375=CARTESIAN_POINT('',(-1.08940405409214E-12,-1.79366203433577E-43,-9.64853031625837));
#376=CARTESIAN_POINT('',(-1.08940405409214E-12,-1.79366203433577E-43,-3.20000000000001));
#377=CARTESIAN_POINT('',(-49.2100000000011,-1.79366203433577E-43,-3.20000000000001));
#378=CARTESIAN_POINT('',(-1.08940405409214E-12,-1.79366203433577E-43,101.6));
#379=CARTESIAN_POINT('',(-1.08940405409214E-12,-1.79366203433577E-43,-3.20000000000001));
#380=CARTESIAN_POINT('',(-34.9250000000011,-1.79366203433577E-43,-3.20000000000001));
#381=CARTESIAN_POINT('',(-1.11739704295504E-12,49.21,-3.2));
#382=CARTESIAN_POINT('',(-1.08940405409214E-12,-1.79366203433577E-43,0.));
#383=CARTESIAN_POINT('',(-34.9250000000011,-1.79366203433577E-43,0.));
#384=CARTESIAN_POINT('',(-1.08940405409214E-12,-1.79366203433577E-43,101.6));
#385=CARTESIAN_POINT('',(-1.08940405409214E-12,-1.79366203433577E-43,101.6));
#386=CARTESIAN_POINT('',(-20.1081934317899,-1.79366203433577E-43,101.6));
#387=CARTESIAN_POINT('',(-1.08940405409214E-12,-1.79366203433577E-43,0.));
#388=CARTESIAN_POINT('',(-1.07600930649319E-12,20.1081934317888,101.6));
#389=MECHANICAL_DESIGN_GEOMETRIC_PRESENTATION_REPRESENTATION('',(#209,#210,
#211,#212,#213,#214,#215),#390);
#390=(
GEOMETRIC_REPRESENTATION_CONTEXT(3)
GLOBAL_UNCERTAINTY_ASSIGNED_CONTEXT((#391))
GLOBAL_UNIT_ASSIGNED_CONTEXT((#397,#393,#392))
REPRESENTATION_CONTEXT('1593430982835','TOP_LEVEL_ASSEMBLY_PART')
);
#391=UNCERTAINTY_MEASURE_WITH_UNIT(LENGTH_MEASURE(2.E-5),#397,
'DISTANCE_ACCURACY_VALUE','Maximum Tolerance applied to model');
#392=(
NAMED_UNIT(*)
SI_UNIT($,.STERADIAN.)
SOLID_ANGLE_UNIT()
);
#393=(
CONVERSION_BASED_UNIT('DEGREE',#395)
NAMED_UNIT(#394)
PLANE_ANGLE_UNIT()
);
#394=DIMENSIONAL_EXPONENTS(0.,0.,0.,0.,0.,0.,0.);
#395=PLANE_ANGLE_MEASURE_WITH_UNIT(PLANE_ANGLE_MEASURE(0.0174532925),#396);
#396=(
NAMED_UNIT(*)
PLANE_ANGLE_UNIT()
SI_UNIT($,.RADIAN.)
);
#397=(
LENGTH_UNIT()
NAMED_UNIT(*)
SI_UNIT(.MILLI.,.METRE.)
);
ENDSEC;
END-ISO-10303-21;
