ISO-10303-21;
HEADER;
/* Generated by software containing ST-Developer
 * from STEP Tools, Inc. (www.steptools.com) 
 */
/* OPTION: using custom schema-name function */

FILE_DESCRIPTION(
/* description */ (''),
/* implementation_level */ '2;1');

FILE_NAME(
/* name */ '1593430923334.stp',
/* time_stamp */ '2020-06-29T13:42:08+02:00',
/* author */ (''),
/* organization */ ('SMS'),
/* preprocessor_version */ 'ST-DEVELOPER v16.7',
/* originating_system */ 'SIEMENS PLM Software NX 12.0',
/* authorisation */ '');

FILE_SCHEMA (('AUTOMOTIVE_DESIGN { 1 0 10303 214 3 1 1 1 }'));
ENDSEC;

DATA;
#10=CONSTRUCTIVE_GEOMETRY_REPRESENTATION_RELATIONSHIP(
'supplemental geometry','',#26,#11);
#11=CONSTRUCTIVE_GEOMETRY_REPRESENTATION('supplemental geometry',(#232,
#233,#234),#390);
#12=GEOMETRICALLY_BOUNDED_WIREFRAME_SHAPE_REPRESENTATION(
'200923027mod000_02-None',(#27),#390);
#13=SHAPE_REPRESENTATION_RELATIONSHIP('None',
'relationship between 200923027mod000_02-None and 200923027mod000_02-N
one',#26,#15);
#14=SHAPE_REPRESENTATION_RELATIONSHIP('None',
'relationship between 200923027mod000_02-None and 200923027mod000_02-N
one',#26,#12);
#15=ADVANCED_BREP_SHAPE_REPRESENTATION('200923027mod000_02-None',(#33),
#390);
#16=SHAPE_DEFINITION_REPRESENTATION(#17,#26);
#17=PRODUCT_DEFINITION_SHAPE('','',#18);
#18=PRODUCT_DEFINITION(' ','',#20,#19);
#19=PRODUCT_DEFINITION_CONTEXT('part definition',#25,'design');
#20=PRODUCT_DEFINITION_FORMATION_WITH_SPECIFIED_SOURCE(' ',' ',#22,
 .NOT_KNOWN.);
#21=PRODUCT_RELATED_PRODUCT_CATEGORY('part','',(#22));
#22=PRODUCT('200923027mod000_02','200923027mod000_02',' ',(#23));
#23=PRODUCT_CONTEXT(' ',#25,'mechanical');
#24=APPLICATION_PROTOCOL_DEFINITION('international standard',
'automotive_design',2010,#25);
#25=APPLICATION_CONTEXT(
'core data for automotive mechanical design processes');
#26=SHAPE_REPRESENTATION('200923027mod000_02-None',(#231),#390);
#27=GEOMETRIC_CURVE_SET('None',(#337,#338,#339));
#28=SURFACE_STYLE_USAGE(.BOTH.,#29);
#29=SURFACE_SIDE_STYLE('',(#30));
#30=SURFACE_STYLE_FILL_AREA(#31);
#31=FILL_AREA_STYLE('',(#32));
#32=FILL_AREA_STYLE_COLOUR('',#230);
#33=MANIFOLD_SOLID_BREP('NOCUT',#34);
#34=CLOSED_SHELL('',(#47,#48,#49,#50,#51,#52,#53,#54,#55,#56,#57,#58,#59,
#60,#61,#62));
#35=FACE_OUTER_BOUND('',#115,.T.);
#36=FACE_OUTER_BOUND('',#116,.T.);
#37=CONICAL_SURFACE('',#241,49.2100000000001,60.0000000000001);
#38=CONICAL_SURFACE('',#245,45.645,59.9999999999999);
#39=CONICAL_SURFACE('',#253,34.925,8.29722222222181);
#40=CYLINDRICAL_SURFACE('',#239,49.21);
#41=CYLINDRICAL_SURFACE('',#243,45.645);
#42=CYLINDRICAL_SURFACE('',#247,49.21);
#43=CYLINDRICAL_SURFACE('',#251,34.925);
#44=CYLINDRICAL_SURFACE('',#258,12.695);
#45=CYLINDRICAL_SURFACE('',#262,28.5999999999999);
#46=CYLINDRICAL_SURFACE('',#265,34.925);
#47=ADVANCED_FACE('',(#69,#70),#63,.T.);
#48=ADVANCED_FACE('',(#71,#72),#40,.T.);
#49=ADVANCED_FACE('',(#73,#74),#37,.T.);
#50=ADVANCED_FACE('',(#75,#76),#41,.T.);
#51=ADVANCED_FACE('',(#77,#78),#38,.T.);
#52=ADVANCED_FACE('',(#79,#80),#42,.T.);
#53=ADVANCED_FACE('',(#81,#82),#64,.T.);
#54=ADVANCED_FACE('',(#83,#84),#43,.T.);
#55=ADVANCED_FACE('',(#85,#86),#39,.T.);
#56=ADVANCED_FACE('',(#35),#65,.T.);
#57=ADVANCED_FACE('',(#36),#66,.T.);
#58=ADVANCED_FACE('',(#87,#88),#44,.T.);
#59=ADVANCED_FACE('',(#89,#90),#67,.T.);
#60=ADVANCED_FACE('',(#91,#92),#45,.T.);
#61=ADVANCED_FACE('',(#93,#94),#68,.T.);
#62=ADVANCED_FACE('',(#95,#96),#46,.T.);
#63=PLANE('',#237);
#64=PLANE('',#249);
#65=PLANE('',#254);
#66=PLANE('',#256);
#67=PLANE('',#260);
#68=PLANE('',#264);
#69=FACE_BOUND('',#97,.T.);
#70=FACE_BOUND('',#98,.T.);
#71=FACE_BOUND('',#99,.T.);
#72=FACE_BOUND('',#100,.T.);
#73=FACE_BOUND('',#101,.T.);
#74=FACE_BOUND('',#102,.T.);
#75=FACE_BOUND('',#103,.T.);
#76=FACE_BOUND('',#104,.T.);
#77=FACE_BOUND('',#105,.T.);
#78=FACE_BOUND('',#106,.T.);
#79=FACE_BOUND('',#107,.T.);
#80=FACE_BOUND('',#108,.T.);
#81=FACE_BOUND('',#109,.T.);
#82=FACE_BOUND('',#110,.T.);
#83=FACE_BOUND('',#111,.T.);
#84=FACE_BOUND('',#112,.T.);
#85=FACE_BOUND('',#113,.T.);
#86=FACE_BOUND('',#114,.T.);
#87=FACE_BOUND('',#117,.T.);
#88=FACE_BOUND('',#118,.T.);
#89=FACE_BOUND('',#119,.T.);
#90=FACE_BOUND('',#120,.T.);
#91=FACE_BOUND('',#121,.T.);
#92=FACE_BOUND('',#122,.T.);
#93=FACE_BOUND('',#123,.T.);
#94=FACE_BOUND('',#124,.T.);
#95=FACE_BOUND('',#125,.T.);
#96=FACE_BOUND('',#126,.T.);
#97=EDGE_LOOP('',(#127));
#98=EDGE_LOOP('',(#128));
#99=EDGE_LOOP('',(#129));
#100=EDGE_LOOP('',(#130));
#101=EDGE_LOOP('',(#131));
#102=EDGE_LOOP('',(#132));
#103=EDGE_LOOP('',(#133));
#104=EDGE_LOOP('',(#134));
#105=EDGE_LOOP('',(#135));
#106=EDGE_LOOP('',(#136));
#107=EDGE_LOOP('',(#137));
#108=EDGE_LOOP('',(#138));
#109=EDGE_LOOP('',(#139));
#110=EDGE_LOOP('',(#140));
#111=EDGE_LOOP('',(#141));
#112=EDGE_LOOP('',(#142));
#113=EDGE_LOOP('',(#143));
#114=EDGE_LOOP('',(#144));
#115=EDGE_LOOP('',(#145));
#116=EDGE_LOOP('',(#146));
#117=EDGE_LOOP('',(#147));
#118=EDGE_LOOP('',(#148));
#119=EDGE_LOOP('',(#149));
#120=EDGE_LOOP('',(#150));
#121=EDGE_LOOP('',(#151));
#122=EDGE_LOOP('',(#152));
#123=EDGE_LOOP('',(#153));
#124=EDGE_LOOP('',(#154));
#125=EDGE_LOOP('',(#155));
#126=EDGE_LOOP('',(#156));
#127=ORIENTED_EDGE('',*,*,#172,.T.);
#128=ORIENTED_EDGE('',*,*,#173,.F.);
#129=ORIENTED_EDGE('',*,*,#174,.T.);
#130=ORIENTED_EDGE('',*,*,#172,.F.);
#131=ORIENTED_EDGE('',*,*,#175,.T.);
#132=ORIENTED_EDGE('',*,*,#174,.F.);
#133=ORIENTED_EDGE('',*,*,#176,.T.);
#134=ORIENTED_EDGE('',*,*,#175,.F.);
#135=ORIENTED_EDGE('',*,*,#177,.T.);
#136=ORIENTED_EDGE('',*,*,#176,.F.);
#137=ORIENTED_EDGE('',*,*,#178,.T.);
#138=ORIENTED_EDGE('',*,*,#177,.F.);
#139=ORIENTED_EDGE('',*,*,#179,.T.);
#140=ORIENTED_EDGE('',*,*,#178,.F.);
#141=ORIENTED_EDGE('',*,*,#180,.T.);
#142=ORIENTED_EDGE('',*,*,#179,.F.);
#143=ORIENTED_EDGE('',*,*,#181,.T.);
#144=ORIENTED_EDGE('',*,*,#180,.F.);
#145=ORIENTED_EDGE('',*,*,#181,.F.);
#146=ORIENTED_EDGE('',*,*,#182,.T.);
#147=ORIENTED_EDGE('',*,*,#183,.T.);
#148=ORIENTED_EDGE('',*,*,#182,.F.);
#149=ORIENTED_EDGE('',*,*,#184,.T.);
#150=ORIENTED_EDGE('',*,*,#183,.F.);
#151=ORIENTED_EDGE('',*,*,#185,.T.);
#152=ORIENTED_EDGE('',*,*,#184,.F.);
#153=ORIENTED_EDGE('',*,*,#186,.T.);
#154=ORIENTED_EDGE('',*,*,#185,.F.);
#155=ORIENTED_EDGE('',*,*,#173,.T.);
#156=ORIENTED_EDGE('',*,*,#186,.F.);
#157=VERTEX_POINT('',#344);
#158=VERTEX_POINT('',#346);
#159=VERTEX_POINT('',#349);
#160=VERTEX_POINT('',#352);
#161=VERTEX_POINT('',#355);
#162=VERTEX_POINT('',#358);
#163=VERTEX_POINT('',#361);
#164=VERTEX_POINT('',#364);
#165=VERTEX_POINT('',#367);
#166=VERTEX_POINT('',#370);
#167=VERTEX_POINT('',#374);
#168=VERTEX_POINT('',#377);
#169=VERTEX_POINT('',#380);
#170=VERTEX_POINT('',#383);
#171=VERTEX_POINT('',#386);
#172=EDGE_CURVE('',#157,#157,#187,.T.);
#173=EDGE_CURVE('',#158,#158,#188,.T.);
#174=EDGE_CURVE('',#159,#159,#189,.T.);
#175=EDGE_CURVE('',#160,#160,#190,.T.);
#176=EDGE_CURVE('',#161,#161,#191,.T.);
#177=EDGE_CURVE('',#162,#162,#192,.T.);
#178=EDGE_CURVE('',#163,#163,#193,.T.);
#179=EDGE_CURVE('',#164,#164,#194,.T.);
#180=EDGE_CURVE('',#165,#165,#195,.T.);
#181=EDGE_CURVE('',#166,#166,#196,.T.);
#182=EDGE_CURVE('',#167,#167,#197,.T.);
#183=EDGE_CURVE('',#168,#168,#198,.T.);
#184=EDGE_CURVE('',#169,#169,#199,.T.);
#185=EDGE_CURVE('',#170,#170,#200,.T.);
#186=EDGE_CURVE('',#171,#171,#201,.T.);
#187=CIRCLE('',#235,49.21);
#188=CIRCLE('',#236,34.9249999999999);
#189=CIRCLE('',#238,49.2100000000001);
#190=CIRCLE('',#240,45.645);
#191=CIRCLE('',#242,45.645);
#192=CIRCLE('',#244,49.21);
#193=CIRCLE('',#246,49.21);
#194=CIRCLE('',#248,34.925);
#195=CIRCLE('',#250,34.925);
#196=CIRCLE('',#252,20.1081934317888);
#197=CIRCLE('',#255,12.695);
#198=CIRCLE('',#257,12.695);
#199=CIRCLE('',#259,28.6);
#200=CIRCLE('',#261,28.5999999999998);
#201=CIRCLE('',#263,34.925);
#202=CURVE_STYLE('',#205,POSITIVE_LENGTH_MEASURE(0.18),#229);
#203=CURVE_STYLE('',#206,POSITIVE_LENGTH_MEASURE(0.18),#229);
#204=CURVE_STYLE('',#207,POSITIVE_LENGTH_MEASURE(0.18),#229);
#205=DRAUGHTING_PRE_DEFINED_CURVE_FONT('continuous');
#206=DRAUGHTING_PRE_DEFINED_CURVE_FONT('continuous');
#207=DRAUGHTING_PRE_DEFINED_CURVE_FONT('continuous');
#208=PRESENTATION_LAYER_ASSIGNMENT('1','Layer 1',(#337,#338,#339,#232,#233,
#234,#33));
#209=STYLED_ITEM('',(#216),#337);
#210=STYLED_ITEM('',(#217),#338);
#211=STYLED_ITEM('',(#218),#339);
#212=STYLED_ITEM('',(#219),#232);
#213=STYLED_ITEM('',(#220),#233);
#214=STYLED_ITEM('',(#221),#234);
#215=STYLED_ITEM('',(#222),#33);
#216=PRESENTATION_STYLE_ASSIGNMENT((#223));
#217=PRESENTATION_STYLE_ASSIGNMENT((#224));
#218=PRESENTATION_STYLE_ASSIGNMENT((#225));
#219=PRESENTATION_STYLE_ASSIGNMENT((#202));
#220=PRESENTATION_STYLE_ASSIGNMENT((#203));
#221=PRESENTATION_STYLE_ASSIGNMENT((#204));
#222=PRESENTATION_STYLE_ASSIGNMENT((#28));
#223=POINT_STYLE('',#226,POSITIVE_LENGTH_MEASURE(3.),#229);
#224=POINT_STYLE('',#227,POSITIVE_LENGTH_MEASURE(3.),#229);
#225=POINT_STYLE('',#228,POSITIVE_LENGTH_MEASURE(3.),#229);
#226=PRE_DEFINED_POINT_MARKER_SYMBOL('plus');
#227=PRE_DEFINED_POINT_MARKER_SYMBOL('plus');
#228=PRE_DEFINED_POINT_MARKER_SYMBOL('plus');
#229=COLOUR_RGB('Strong Stone',0.576470588235294,0.54508278019379,0.392156862745098);
#230=COLOUR_RGB('Medium Gray',0.501960784313725,0.501960784313725,0.501960784313725);
#231=AXIS2_PLACEMENT_3D('',#336,#266,#267);
#232=AXIS2_PLACEMENT_3D('MCS',#340,#268,#269);
#233=AXIS2_PLACEMENT_3D('PCS',#341,#270,#271);
#234=AXIS2_PLACEMENT_3D('CSW',#342,#272,#273);
#235=AXIS2_PLACEMENT_3D('',#343,#274,#275);
#236=AXIS2_PLACEMENT_3D('',#345,#276,#277);
#237=AXIS2_PLACEMENT_3D('',#347,#278,#279);
#238=AXIS2_PLACEMENT_3D('',#348,#280,#281);
#239=AXIS2_PLACEMENT_3D('',#350,#282,#283);
#240=AXIS2_PLACEMENT_3D('',#351,#284,#285);
#241=AXIS2_PLACEMENT_3D('',#353,#286,#287);
#242=AXIS2_PLACEMENT_3D('',#354,#288,#289);
#243=AXIS2_PLACEMENT_3D('',#356,#290,#291);
#244=AXIS2_PLACEMENT_3D('',#357,#292,#293);
#245=AXIS2_PLACEMENT_3D('',#359,#294,#295);
#246=AXIS2_PLACEMENT_3D('',#360,#296,#297);
#247=AXIS2_PLACEMENT_3D('',#362,#298,#299);
#248=AXIS2_PLACEMENT_3D('',#363,#300,#301);
#249=AXIS2_PLACEMENT_3D('',#365,#302,#303);
#250=AXIS2_PLACEMENT_3D('',#366,#304,#305);
#251=AXIS2_PLACEMENT_3D('',#368,#306,#307);
#252=AXIS2_PLACEMENT_3D('',#369,#308,#309);
#253=AXIS2_PLACEMENT_3D('',#371,#310,#311);
#254=AXIS2_PLACEMENT_3D('',#372,#312,#313);
#255=AXIS2_PLACEMENT_3D('',#373,#314,#315);
#256=AXIS2_PLACEMENT_3D('',#375,#316,#317);
#257=AXIS2_PLACEMENT_3D('',#376,#318,#319);
#258=AXIS2_PLACEMENT_3D('',#378,#320,#321);
#259=AXIS2_PLACEMENT_3D('',#379,#322,#323);
#260=AXIS2_PLACEMENT_3D('',#381,#324,#325);
#261=AXIS2_PLACEMENT_3D('',#382,#326,#327);
#262=AXIS2_PLACEMENT_3D('',#384,#328,#329);
#263=AXIS2_PLACEMENT_3D('',#385,#330,#331);
#264=AXIS2_PLACEMENT_3D('',#387,#332,#333);
#265=AXIS2_PLACEMENT_3D('',#388,#334,#335);
#266=DIRECTION('',(0.,0.,1.));
#267=DIRECTION('',(1.,0.,0.));
#268=DIRECTION('',(0.,0.,1.));
#269=DIRECTION('',(1.,0.,0.));
#270=DIRECTION('',(0.,0.,1.));
#271=DIRECTION('',(1.,0.,0.));
#272=DIRECTION('',(0.,0.,1.));
#273=DIRECTION('',(1.,0.,0.));
#274=DIRECTION('',(0.,0.,-1.));
#275=DIRECTION('',(-1.,0.,0.));
#276=DIRECTION('',(0.,0.,-1.));
#277=DIRECTION('',(-1.,0.,0.));
#278=DIRECTION('',(0.,0.,-1.));
#279=DIRECTION('',(-1.,0.,0.));
#280=DIRECTION('',(0.,0.,-1.));
#281=DIRECTION('',(-1.,0.,0.));
#282=DIRECTION('',(0.,0.,-1.));
#283=DIRECTION('',(-1.,0.,0.));
#284=DIRECTION('',(0.,0.,-1.));
#285=DIRECTION('',(-1.,0.,0.));
#286=DIRECTION('',(0.,0.,-1.));
#287=DIRECTION('',(-1.,0.,5.25891926127304E-17));
#288=DIRECTION('',(0.,0.,-1.));
#289=DIRECTION('',(-1.,0.,0.));
#290=DIRECTION('',(0.,0.,-1.));
#291=DIRECTION('',(-1.,0.,0.));
#292=DIRECTION('',(0.,0.,-1.));
#293=DIRECTION('',(-1.,0.,0.));
#294=DIRECTION('',(0.,0.,1.));
#295=DIRECTION('',(1.,0.,1.36615772846359E-17));
#296=DIRECTION('',(0.,0.,-1.));
#297=DIRECTION('',(-1.,0.,0.));
#298=DIRECTION('',(0.,0.,-1.));
#299=DIRECTION('',(-1.,0.,0.));
#300=DIRECTION('',(0.,0.,-1.));
#301=DIRECTION('',(-1.,0.,0.));
#302=DIRECTION('',(0.,0.,1.));
#303=DIRECTION('',(1.,0.,0.));
#304=DIRECTION('',(0.,0.,-1.));
#305=DIRECTION('',(-1.,0.,0.));
#306=DIRECTION('',(0.,0.,-1.));
#307=DIRECTION('',(-1.,0.,0.));
#308=DIRECTION('',(0.,0.,-1.));
#309=DIRECTION('',(-1.,0.,0.));
#310=DIRECTION('',(0.,0.,-1.));
#311=DIRECTION('',(-1.,0.,0.));
#312=DIRECTION('',(0.,0.,1.));
#313=DIRECTION('',(1.,0.,0.));
#314=DIRECTION('',(0.,0.,-1.));
#315=DIRECTION('',(-1.,0.,0.));
#316=DIRECTION('',(0.,0.,-1.));
#317=DIRECTION('',(-1.,0.,0.));
#318=DIRECTION('',(0.,0.,-1.));
#319=DIRECTION('',(-1.,0.,0.));
#320=DIRECTION('',(0.,0.,-1.));
#321=DIRECTION('',(-1.,0.,0.));
#322=DIRECTION('',(0.,0.,-1.));
#323=DIRECTION('',(-1.,0.,0.));
#324=DIRECTION('',(0.,0.,-1.));
#325=DIRECTION('',(-1.,0.,0.));
#326=DIRECTION('',(0.,0.,-1.));
#327=DIRECTION('',(-1.,0.,0.));
#328=DIRECTION('',(0.,0.,-1.));
#329=DIRECTION('',(-1.,0.,0.));
#330=DIRECTION('',(0.,0.,-1.));
#331=DIRECTION('',(-1.,0.,0.));
#332=DIRECTION('',(0.,0.,-1.));
#333=DIRECTION('',(-1.,0.,0.));
#334=DIRECTION('',(0.,0.,-1.));
#335=DIRECTION('',(-1.,0.,0.));
#336=CARTESIAN_POINT('',(0.,0.,0.));
#337=CARTESIAN_POINT('',(0.,0.,0.));
#338=CARTESIAN_POINT('',(0.,0.,0.));
#339=CARTESIAN_POINT('',(0.,0.,-50.8));
#340=CARTESIAN_POINT('',(0.,0.,0.));
#341=CARTESIAN_POINT('',(0.,0.,0.));
#342=CARTESIAN_POINT('',(0.,0.,-50.8));
#343=CARTESIAN_POINT('',(0.,0.,-19.05));
#344=CARTESIAN_POINT('',(-49.21,0.,-19.05));
#345=CARTESIAN_POINT('',(0.,0.,-19.05));
#346=CARTESIAN_POINT('',(-34.9249999999999,0.,-19.05));
#347=CARTESIAN_POINT('',(24.6957043329399,24.6957043329403,-19.05));
#348=CARTESIAN_POINT('',(0.,0.,-14.6397233934027));
#349=CARTESIAN_POINT('',(-49.2100000000001,0.,-14.6397233934027));
#350=CARTESIAN_POINT('',(0.,0.,0.));
#351=CARTESIAN_POINT('',(0.,0.,-12.5814696837416));
#352=CARTESIAN_POINT('',(-45.645,0.,-12.5814696837416));
#353=CARTESIAN_POINT('',(0.,0.,-14.6397233934027));
#354=CARTESIAN_POINT('',(0.,0.,-9.64853031625837));
#355=CARTESIAN_POINT('',(-45.645,0.,-9.64853031625837));
#356=CARTESIAN_POINT('',(0.,0.,0.));
#357=CARTESIAN_POINT('',(0.,0.,-7.59027660659734));
#358=CARTESIAN_POINT('',(-49.21,0.,-7.59027660659734));
#359=CARTESIAN_POINT('',(0.,0.,-9.64853031625837));
#360=CARTESIAN_POINT('',(0.,0.,-3.20000000000002));
#361=CARTESIAN_POINT('',(-49.21,0.,-3.20000000000002));
#362=CARTESIAN_POINT('',(0.,0.,0.));
#363=CARTESIAN_POINT('',(0.,0.,-3.2));
#364=CARTESIAN_POINT('',(-34.925,0.,-3.2));
#365=CARTESIAN_POINT('',(34.7967247021899,34.7967247021901,-3.20000000000001));
#366=CARTESIAN_POINT('',(0.,0.,0.));
#367=CARTESIAN_POINT('',(-34.925,0.,0.));
#368=CARTESIAN_POINT('',(0.,0.,0.));
#369=CARTESIAN_POINT('',(0.,0.,101.6));
#370=CARTESIAN_POINT('',(-20.1081934317888,0.,101.6));
#371=CARTESIAN_POINT('',(0.,0.,0.));
#372=CARTESIAN_POINT('',(14.2186399330286,14.2186399330287,101.6));
#373=CARTESIAN_POINT('',(0.,0.,-68.25));
#374=CARTESIAN_POINT('',(-12.695,0.,-68.25));
#375=CARTESIAN_POINT('',(-1.27897692436818E-13,1.27897692436818E-13,-68.25));
#376=CARTESIAN_POINT('',(0.,0.,-50.8));
#377=CARTESIAN_POINT('',(-12.695,0.,-50.8));
#378=CARTESIAN_POINT('',(0.,0.,0.));
#379=CARTESIAN_POINT('',(0.,0.,-50.8));
#380=CARTESIAN_POINT('',(-28.6,0.,-50.8));
#381=CARTESIAN_POINT('',(8.9767205871631,8.97672058716335,-50.8));
#382=CARTESIAN_POINT('',(0.,0.,-35.1));
#383=CARTESIAN_POINT('',(-28.5999999999998,0.,-35.1));
#384=CARTESIAN_POINT('',(0.,0.,0.));
#385=CARTESIAN_POINT('',(0.,0.,-35.1000000000001));
#386=CARTESIAN_POINT('',(-34.925,0.,-35.1000000000001));
#387=CARTESIAN_POINT('',(20.223253941935,20.2232539419353,-35.1));
#388=CARTESIAN_POINT('',(0.,0.,0.));
#389=MECHANICAL_DESIGN_GEOMETRIC_PRESENTATION_REPRESENTATION('',(#209,#210,
#211,#212,#213,#214,#215),#390);
#390=(
GEOMETRIC_REPRESENTATION_CONTEXT(3)
GLOBAL_UNCERTAINTY_ASSIGNED_CONTEXT((#391))
GLOBAL_UNIT_ASSIGNED_CONTEXT((#397,#393,#392))
REPRESENTATION_CONTEXT('1593430923334','TOP_LEVEL_ASSEMBLY_PART')
);
#391=UNCERTAINTY_MEASURE_WITH_UNIT(LENGTH_MEASURE(2.E-5),#397,
'DISTANCE_ACCURACY_VALUE','Maximum Tolerance applied to model');
#392=(
NAMED_UNIT(*)
SI_UNIT($,.STERADIAN.)
SOLID_ANGLE_UNIT()
);
#393=(
CONVERSION_BASED_UNIT('DEGREE',#395)
NAMED_UNIT(#394)
PLANE_ANGLE_UNIT()
);
#394=DIMENSIONAL_EXPONENTS(0.,0.,0.,0.,0.,0.,0.);
#395=PLANE_ANGLE_MEASURE_WITH_UNIT(PLANE_ANGLE_MEASURE(0.0174532925),#396);
#396=(
NAMED_UNIT(*)
PLANE_ANGLE_UNIT()
SI_UNIT($,.RADIAN.)
);
#397=(
LENGTH_UNIT()
NAMED_UNIT(*)
SI_UNIT(.MILLI.,.METRE.)
);
ENDSEC;
END-ISO-10303-21;
