ISO-10303-21;
HEADER;
/* Generated by software containing ST-Developer
 * from STEP Tools, Inc. (www.steptools.com) 
 */
/* OPTION: using custom schema-name function */

FILE_DESCRIPTION(
/* description */ (''),
/* implementation_level */ '2;1');

FILE_NAME(
/* name */ '1593430847413.stp',
/* time_stamp */ '2020-06-29T13:40:52+02:00',
/* author */ (''),
/* organization */ ('SMS'),
/* preprocessor_version */ 'ST-DEVELOPER v16.7',
/* originating_system */ 'SIEMENS PLM Software NX 12.0',
/* authorisation */ '');

FILE_SCHEMA (('AUTOMOTIVE_DESIGN { 1 0 10303 214 3 1 1 1 }'));
ENDSEC;

DATA;
#10=CONSTRUCTIVE_GEOMETRY_REPRESENTATION_RELATIONSHIP(
'supplemental geometry','',#26,#11);
#11=CONSTRUCTIVE_GEOMETRY_REPRESENTATION('supplemental geometry',(#210,
#211,#212),#350);
#12=GEOMETRICALLY_BOUNDED_WIREFRAME_SHAPE_REPRESENTATION(
'200923013mod000_01-None',(#27),#350);
#13=SHAPE_REPRESENTATION_RELATIONSHIP('None',
'relationship between 200923013mod000_01-None and 200923013mod000_01-N
one',#26,#15);
#14=SHAPE_REPRESENTATION_RELATIONSHIP('None',
'relationship between 200923013mod000_01-None and 200923013mod000_01-N
one',#26,#12);
#15=ADVANCED_BREP_SHAPE_REPRESENTATION('200923013mod000_01-None',(#33),
#350);
#16=SHAPE_DEFINITION_REPRESENTATION(#17,#26);
#17=PRODUCT_DEFINITION_SHAPE('','',#18);
#18=PRODUCT_DEFINITION(' ','',#20,#19);
#19=PRODUCT_DEFINITION_CONTEXT('part definition',#25,'design');
#20=PRODUCT_DEFINITION_FORMATION_WITH_SPECIFIED_SOURCE(' ',' ',#22,
 .NOT_KNOWN.);
#21=PRODUCT_RELATED_PRODUCT_CATEGORY('part','',(#22));
#22=PRODUCT('200923013mod000_01','200923013mod000_01',' ',(#23));
#23=PRODUCT_CONTEXT(' ',#25,'mechanical');
#24=APPLICATION_PROTOCOL_DEFINITION('international standard',
'automotive_design',2010,#25);
#25=APPLICATION_CONTEXT(
'core data for automotive mechanical design processes');
#26=SHAPE_REPRESENTATION('200923013mod000_01-None',(#209),#350);
#27=GEOMETRIC_CURVE_SET('None',(#303,#304,#305));
#28=SURFACE_STYLE_USAGE(.BOTH.,#29);
#29=SURFACE_SIDE_STYLE('',(#30));
#30=SURFACE_STYLE_FILL_AREA(#31);
#31=FILL_AREA_STYLE('',(#32));
#32=FILL_AREA_STYLE_COLOUR('',#208);
#33=MANIFOLD_SOLID_BREP('NOCUT',#34);
#34=CLOSED_SHELL('',(#46,#47,#48,#49,#50,#51,#52,#53,#54,#55,#56,#57,#58,
#59));
#35=FACE_OUTER_BOUND('',#111,.T.);
#36=FACE_OUTER_BOUND('',#112,.T.);
#37=CONICAL_SURFACE('',#223,31.75,60.0000000000003);
#38=CONICAL_SURFACE('',#227,28.175,60.0000000000004);
#39=CONICAL_SURFACE('',#235,22.225,8.29722222222182);
#40=CYLINDRICAL_SURFACE('',#217,22.225);
#41=CYLINDRICAL_SURFACE('',#221,31.75);
#42=CYLINDRICAL_SURFACE('',#225,28.175);
#43=CYLINDRICAL_SURFACE('',#229,31.7500000000001);
#44=CYLINDRICAL_SURFACE('',#233,22.225);
#45=CYLINDRICAL_SURFACE('',#239,9.52);
#46=ADVANCED_FACE('',(#65,#66),#60,.T.);
#47=ADVANCED_FACE('',(#67,#68),#40,.T.);
#48=ADVANCED_FACE('',(#69,#70),#61,.T.);
#49=ADVANCED_FACE('',(#71,#72),#41,.T.);
#50=ADVANCED_FACE('',(#73,#74),#37,.T.);
#51=ADVANCED_FACE('',(#75,#76),#42,.T.);
#52=ADVANCED_FACE('',(#77,#78),#38,.T.);
#53=ADVANCED_FACE('',(#79,#80),#43,.T.);
#54=ADVANCED_FACE('',(#81,#82),#62,.T.);
#55=ADVANCED_FACE('',(#83,#84),#44,.T.);
#56=ADVANCED_FACE('',(#85,#86),#39,.T.);
#57=ADVANCED_FACE('',(#35),#63,.T.);
#58=ADVANCED_FACE('',(#36),#64,.T.);
#59=ADVANCED_FACE('',(#87,#88),#45,.T.);
#60=PLANE('',#215);
#61=PLANE('',#219);
#62=PLANE('',#231);
#63=PLANE('',#236);
#64=PLANE('',#238);
#65=FACE_BOUND('',#89,.T.);
#66=FACE_BOUND('',#90,.T.);
#67=FACE_BOUND('',#91,.T.);
#68=FACE_BOUND('',#92,.T.);
#69=FACE_BOUND('',#93,.T.);
#70=FACE_BOUND('',#94,.T.);
#71=FACE_BOUND('',#95,.T.);
#72=FACE_BOUND('',#96,.T.);
#73=FACE_BOUND('',#97,.T.);
#74=FACE_BOUND('',#98,.T.);
#75=FACE_BOUND('',#99,.T.);
#76=FACE_BOUND('',#100,.T.);
#77=FACE_BOUND('',#101,.T.);
#78=FACE_BOUND('',#102,.T.);
#79=FACE_BOUND('',#103,.T.);
#80=FACE_BOUND('',#104,.T.);
#81=FACE_BOUND('',#105,.T.);
#82=FACE_BOUND('',#106,.T.);
#83=FACE_BOUND('',#107,.T.);
#84=FACE_BOUND('',#108,.T.);
#85=FACE_BOUND('',#109,.T.);
#86=FACE_BOUND('',#110,.T.);
#87=FACE_BOUND('',#113,.T.);
#88=FACE_BOUND('',#114,.T.);
#89=EDGE_LOOP('',(#115));
#90=EDGE_LOOP('',(#116));
#91=EDGE_LOOP('',(#117));
#92=EDGE_LOOP('',(#118));
#93=EDGE_LOOP('',(#119));
#94=EDGE_LOOP('',(#120));
#95=EDGE_LOOP('',(#121));
#96=EDGE_LOOP('',(#122));
#97=EDGE_LOOP('',(#123));
#98=EDGE_LOOP('',(#124));
#99=EDGE_LOOP('',(#125));
#100=EDGE_LOOP('',(#126));
#101=EDGE_LOOP('',(#127));
#102=EDGE_LOOP('',(#128));
#103=EDGE_LOOP('',(#129));
#104=EDGE_LOOP('',(#130));
#105=EDGE_LOOP('',(#131));
#106=EDGE_LOOP('',(#132));
#107=EDGE_LOOP('',(#133));
#108=EDGE_LOOP('',(#134));
#109=EDGE_LOOP('',(#135));
#110=EDGE_LOOP('',(#136));
#111=EDGE_LOOP('',(#137));
#112=EDGE_LOOP('',(#138));
#113=EDGE_LOOP('',(#139));
#114=EDGE_LOOP('',(#140));
#115=ORIENTED_EDGE('',*,*,#154,.T.);
#116=ORIENTED_EDGE('',*,*,#155,.F.);
#117=ORIENTED_EDGE('',*,*,#156,.T.);
#118=ORIENTED_EDGE('',*,*,#154,.F.);
#119=ORIENTED_EDGE('',*,*,#157,.T.);
#120=ORIENTED_EDGE('',*,*,#156,.F.);
#121=ORIENTED_EDGE('',*,*,#158,.T.);
#122=ORIENTED_EDGE('',*,*,#157,.F.);
#123=ORIENTED_EDGE('',*,*,#159,.T.);
#124=ORIENTED_EDGE('',*,*,#158,.F.);
#125=ORIENTED_EDGE('',*,*,#160,.T.);
#126=ORIENTED_EDGE('',*,*,#159,.F.);
#127=ORIENTED_EDGE('',*,*,#161,.T.);
#128=ORIENTED_EDGE('',*,*,#160,.F.);
#129=ORIENTED_EDGE('',*,*,#162,.T.);
#130=ORIENTED_EDGE('',*,*,#161,.F.);
#131=ORIENTED_EDGE('',*,*,#163,.T.);
#132=ORIENTED_EDGE('',*,*,#162,.F.);
#133=ORIENTED_EDGE('',*,*,#164,.T.);
#134=ORIENTED_EDGE('',*,*,#163,.F.);
#135=ORIENTED_EDGE('',*,*,#165,.T.);
#136=ORIENTED_EDGE('',*,*,#164,.F.);
#137=ORIENTED_EDGE('',*,*,#165,.F.);
#138=ORIENTED_EDGE('',*,*,#166,.T.);
#139=ORIENTED_EDGE('',*,*,#155,.T.);
#140=ORIENTED_EDGE('',*,*,#166,.F.);
#141=VERTEX_POINT('',#310);
#142=VERTEX_POINT('',#312);
#143=VERTEX_POINT('',#315);
#144=VERTEX_POINT('',#318);
#145=VERTEX_POINT('',#321);
#146=VERTEX_POINT('',#324);
#147=VERTEX_POINT('',#327);
#148=VERTEX_POINT('',#330);
#149=VERTEX_POINT('',#333);
#150=VERTEX_POINT('',#336);
#151=VERTEX_POINT('',#339);
#152=VERTEX_POINT('',#342);
#153=VERTEX_POINT('',#346);
#154=EDGE_CURVE('',#141,#141,#167,.T.);
#155=EDGE_CURVE('',#142,#142,#168,.T.);
#156=EDGE_CURVE('',#143,#143,#169,.T.);
#157=EDGE_CURVE('',#144,#144,#170,.T.);
#158=EDGE_CURVE('',#145,#145,#171,.T.);
#159=EDGE_CURVE('',#146,#146,#172,.T.);
#160=EDGE_CURVE('',#147,#147,#173,.T.);
#161=EDGE_CURVE('',#148,#148,#174,.T.);
#162=EDGE_CURVE('',#149,#149,#175,.T.);
#163=EDGE_CURVE('',#150,#150,#176,.T.);
#164=EDGE_CURVE('',#151,#151,#177,.T.);
#165=EDGE_CURVE('',#152,#152,#178,.T.);
#166=EDGE_CURVE('',#153,#153,#179,.T.);
#167=CIRCLE('',#213,22.225);
#168=CIRCLE('',#214,9.52);
#169=CIRCLE('',#216,22.225);
#170=CIRCLE('',#218,31.75);
#171=CIRCLE('',#220,31.75);
#172=CIRCLE('',#222,28.175);
#173=CIRCLE('',#224,28.175);
#174=CIRCLE('',#226,31.7500000000001);
#175=CIRCLE('',#228,31.7500000000001);
#176=CIRCLE('',#230,22.225);
#177=CIRCLE('',#232,22.225);
#178=CIRCLE('',#234,12.2717810208621);
#179=CIRCLE('',#237,9.52);
#180=CURVE_STYLE('',#183,POSITIVE_LENGTH_MEASURE(0.18),#207);
#181=CURVE_STYLE('',#184,POSITIVE_LENGTH_MEASURE(0.18),#207);
#182=CURVE_STYLE('',#185,POSITIVE_LENGTH_MEASURE(0.18),#207);
#183=DRAUGHTING_PRE_DEFINED_CURVE_FONT('continuous');
#184=DRAUGHTING_PRE_DEFINED_CURVE_FONT('continuous');
#185=DRAUGHTING_PRE_DEFINED_CURVE_FONT('continuous');
#186=PRESENTATION_LAYER_ASSIGNMENT('1','Layer 1',(#303,#304,#305,#210,#211,
#212,#33));
#187=STYLED_ITEM('',(#194),#303);
#188=STYLED_ITEM('',(#195),#304);
#189=STYLED_ITEM('',(#196),#305);
#190=STYLED_ITEM('',(#197),#210);
#191=STYLED_ITEM('',(#198),#211);
#192=STYLED_ITEM('',(#199),#212);
#193=STYLED_ITEM('',(#200),#33);
#194=PRESENTATION_STYLE_ASSIGNMENT((#201));
#195=PRESENTATION_STYLE_ASSIGNMENT((#202));
#196=PRESENTATION_STYLE_ASSIGNMENT((#203));
#197=PRESENTATION_STYLE_ASSIGNMENT((#180));
#198=PRESENTATION_STYLE_ASSIGNMENT((#181));
#199=PRESENTATION_STYLE_ASSIGNMENT((#182));
#200=PRESENTATION_STYLE_ASSIGNMENT((#28));
#201=POINT_STYLE('',#204,POSITIVE_LENGTH_MEASURE(3.),#207);
#202=POINT_STYLE('',#205,POSITIVE_LENGTH_MEASURE(3.),#207);
#203=POINT_STYLE('',#206,POSITIVE_LENGTH_MEASURE(3.),#207);
#204=PRE_DEFINED_POINT_MARKER_SYMBOL('plus');
#205=PRE_DEFINED_POINT_MARKER_SYMBOL('plus');
#206=PRE_DEFINED_POINT_MARKER_SYMBOL('plus');
#207=COLOUR_RGB('Strong Stone',0.576470588235294,0.54508278019379,0.392156862745098);
#208=COLOUR_RGB('Medium Gray',0.501960784313725,0.501960784313725,0.501960784313725);
#209=AXIS2_PLACEMENT_3D('',#302,#240,#241);
#210=AXIS2_PLACEMENT_3D('PCS',#306,#242,#243);
#211=AXIS2_PLACEMENT_3D('MCS',#307,#244,#245);
#212=AXIS2_PLACEMENT_3D('CSW',#308,#246,#247);
#213=AXIS2_PLACEMENT_3D('',#309,#248,#249);
#214=AXIS2_PLACEMENT_3D('',#311,#250,#251);
#215=AXIS2_PLACEMENT_3D('',#313,#252,#253);
#216=AXIS2_PLACEMENT_3D('',#314,#254,#255);
#217=AXIS2_PLACEMENT_3D('',#316,#256,#257);
#218=AXIS2_PLACEMENT_3D('',#317,#258,#259);
#219=AXIS2_PLACEMENT_3D('',#319,#260,#261);
#220=AXIS2_PLACEMENT_3D('',#320,#262,#263);
#221=AXIS2_PLACEMENT_3D('',#322,#264,#265);
#222=AXIS2_PLACEMENT_3D('',#323,#266,#267);
#223=AXIS2_PLACEMENT_3D('',#325,#268,#269);
#224=AXIS2_PLACEMENT_3D('',#326,#270,#271);
#225=AXIS2_PLACEMENT_3D('',#328,#272,#273);
#226=AXIS2_PLACEMENT_3D('',#329,#274,#275);
#227=AXIS2_PLACEMENT_3D('',#331,#276,#277);
#228=AXIS2_PLACEMENT_3D('',#332,#278,#279);
#229=AXIS2_PLACEMENT_3D('',#334,#280,#281);
#230=AXIS2_PLACEMENT_3D('',#335,#282,#283);
#231=AXIS2_PLACEMENT_3D('',#337,#284,#285);
#232=AXIS2_PLACEMENT_3D('',#338,#286,#287);
#233=AXIS2_PLACEMENT_3D('',#340,#288,#289);
#234=AXIS2_PLACEMENT_3D('',#341,#290,#291);
#235=AXIS2_PLACEMENT_3D('',#343,#292,#293);
#236=AXIS2_PLACEMENT_3D('',#344,#294,#295);
#237=AXIS2_PLACEMENT_3D('',#345,#296,#297);
#238=AXIS2_PLACEMENT_3D('',#347,#298,#299);
#239=AXIS2_PLACEMENT_3D('',#348,#300,#301);
#240=DIRECTION('',(0.,0.,1.));
#241=DIRECTION('',(1.,0.,0.));
#242=DIRECTION('',(0.,0.,1.));
#243=DIRECTION('',(1.,0.,0.));
#244=DIRECTION('',(0.,0.,1.));
#245=DIRECTION('',(1.,0.,0.));
#246=DIRECTION('',(0.,0.,1.));
#247=DIRECTION('',(1.,0.,0.));
#248=DIRECTION('',(0.,0.,-1.));
#249=DIRECTION('',(-1.,0.,0.));
#250=DIRECTION('',(0.,0.,-1.));
#251=DIRECTION('',(-1.,0.,0.));
#252=DIRECTION('',(0.,0.,-1.));
#253=DIRECTION('',(-1.,0.,0.));
#254=DIRECTION('',(0.,0.,-1.));
#255=DIRECTION('',(-1.,0.,0.));
#256=DIRECTION('',(0.,0.,-1.));
#257=DIRECTION('',(-1.,0.,0.));
#258=DIRECTION('',(0.,0.,-1.));
#259=DIRECTION('',(-1.,0.,0.));
#260=DIRECTION('',(0.,0.,-1.));
#261=DIRECTION('',(-1.,0.,0.));
#262=DIRECTION('',(0.,0.,-1.));
#263=DIRECTION('',(-1.,0.,0.));
#264=DIRECTION('',(0.,0.,-1.));
#265=DIRECTION('',(-1.,0.,0.));
#266=DIRECTION('',(0.,0.,-1.));
#267=DIRECTION('',(-1.,0.,0.));
#268=DIRECTION('',(0.,0.,-1.));
#269=DIRECTION('',(-1.,0.,4.72086907373945E-17));
#270=DIRECTION('',(0.,0.,-1.));
#271=DIRECTION('',(-1.,0.,0.));
#272=DIRECTION('',(0.,0.,-1.));
#273=DIRECTION('',(-1.,0.,0.));
#274=DIRECTION('',(0.,0.,-1.));
#275=DIRECTION('',(-1.,0.,0.));
#276=DIRECTION('',(0.,0.,1.));
#277=DIRECTION('',(1.,0.,-7.88409518150484E-18));
#278=DIRECTION('',(0.,0.,-1.));
#279=DIRECTION('',(-1.,0.,0.));
#280=DIRECTION('',(0.,0.,-1.));
#281=DIRECTION('',(-1.,0.,0.));
#282=DIRECTION('',(0.,0.,-1.));
#283=DIRECTION('',(-1.,0.,0.));
#284=DIRECTION('',(0.,0.,1.));
#285=DIRECTION('',(1.,0.,0.));
#286=DIRECTION('',(0.,0.,-1.));
#287=DIRECTION('',(-1.,0.,0.));
#288=DIRECTION('',(0.,0.,-1.));
#289=DIRECTION('',(-1.,0.,0.));
#290=DIRECTION('',(0.,0.,-1.));
#291=DIRECTION('',(-1.,0.,0.));
#292=DIRECTION('',(0.,0.,-1.));
#293=DIRECTION('',(-1.,0.,0.));
#294=DIRECTION('',(0.,0.,1.));
#295=DIRECTION('',(1.,0.,0.));
#296=DIRECTION('',(0.,0.,-1.));
#297=DIRECTION('',(-1.,0.,0.));
#298=DIRECTION('',(0.,0.,-1.));
#299=DIRECTION('',(-1.,0.,0.));
#300=DIRECTION('',(0.,0.,-1.));
#301=DIRECTION('',(-1.,0.,0.));
#302=CARTESIAN_POINT('',(0.,0.,0.));
#303=CARTESIAN_POINT('',(0.,0.,0.));
#304=CARTESIAN_POINT('',(0.,0.,0.));
#305=CARTESIAN_POINT('',(4.02799400300039E-32,9.46633086265214E-30,-38.1));
#306=CARTESIAN_POINT('',(0.,0.,0.));
#307=CARTESIAN_POINT('',(0.,0.,0.));
#308=CARTESIAN_POINT('',(4.02799400300039E-32,9.46633086265214E-30,-38.1));
#309=CARTESIAN_POINT('',(4.02799400300039E-32,9.46633086265214E-30,-38.1));
#310=CARTESIAN_POINT('',(-22.225,9.46633086265214E-30,-38.1));
#311=CARTESIAN_POINT('',(4.02799400300039E-32,9.46633086265214E-30,-38.1));
#312=CARTESIAN_POINT('',(-9.52,9.46633086265214E-30,-38.1));
#313=CARTESIAN_POINT('',(-9.52,-5.28466159721574E-15,-38.1));
#314=CARTESIAN_POINT('',(4.02799400300039E-32,9.46633086265214E-30,-19.05));
#315=CARTESIAN_POINT('',(-22.225,9.46633086265214E-30,-19.05));
#316=CARTESIAN_POINT('',(4.02799400300039E-32,9.46633086265214E-30,68.2499999999999));
#317=CARTESIAN_POINT('',(4.02799400300039E-32,9.46633086265214E-30,-19.05));
#318=CARTESIAN_POINT('',(-31.75,9.46633086265214E-30,-19.05));
#319=CARTESIAN_POINT('',(-22.225,-1.23373533611471E-14,-19.05));
#320=CARTESIAN_POINT('',(4.02799400300039E-32,9.46633086265214E-30,-14.6411263545568));
#321=CARTESIAN_POINT('',(-31.75,9.46633086265214E-30,-14.6411263545568));
#322=CARTESIAN_POINT('',(4.02799400300039E-32,9.46633086265214E-30,68.2499999999999));
#323=CARTESIAN_POINT('',(4.02799400300039E-32,9.46633086265214E-30,-12.5770991422039));
#324=CARTESIAN_POINT('',(-28.175,9.46633086265214E-30,-12.5770991422039));
#325=CARTESIAN_POINT('',(4.02799400300039E-32,9.46633086265214E-30,-14.6411263545568));
#326=CARTESIAN_POINT('',(4.02799400300039E-32,9.46633086265214E-30,-9.65290085779612));
#327=CARTESIAN_POINT('',(-28.175,9.46633086265214E-30,-9.65290085779612));
#328=CARTESIAN_POINT('',(4.02799400300039E-32,9.46633086265214E-30,68.2499999999999));
#329=CARTESIAN_POINT('',(4.02799400300039E-32,9.46633086265214E-30,-7.58887364544318));
#330=CARTESIAN_POINT('',(-31.7500000000001,9.46633086265214E-30,-7.58887364544318));
#331=CARTESIAN_POINT('',(4.02799400300039E-32,9.46633086265214E-30,-9.65290085779612));
#332=CARTESIAN_POINT('',(4.02799400300039E-32,9.46633086265214E-30,-3.20000000000001));
#333=CARTESIAN_POINT('',(-31.7500000000001,9.46633086265214E-30,-3.20000000000001));
#334=CARTESIAN_POINT('',(4.02799400300039E-32,9.46633086265214E-30,68.2499999999999));
#335=CARTESIAN_POINT('',(4.02799400300039E-32,9.46633086265214E-30,-3.20000000000001));
#336=CARTESIAN_POINT('',(-22.225,9.46633086265214E-30,-3.20000000000001));
#337=CARTESIAN_POINT('',(-31.7500000000001,-1.23373533611471E-14,-3.20000000000001));
#338=CARTESIAN_POINT('',(4.02799400300039E-32,9.46633086265214E-30,0.));
#339=CARTESIAN_POINT('',(-22.225,9.46633086265214E-30,0.));
#340=CARTESIAN_POINT('',(4.02799400300039E-32,9.46633086265214E-30,68.2499999999999));
#341=CARTESIAN_POINT('',(4.02799400300039E-32,9.46633086265214E-30,68.25));
#342=CARTESIAN_POINT('',(-12.2717810208621,9.46633086265214E-30,68.25));
#343=CARTESIAN_POINT('',(4.02799400300039E-32,9.46633086265214E-30,0.));
#344=CARTESIAN_POINT('',(-12.2717810208621,-6.81220692125952E-15,68.25));
#345=CARTESIAN_POINT('',(4.02799400300039E-32,9.46633086265214E-30,-55.55));
#346=CARTESIAN_POINT('',(-9.52,9.46633086265214E-30,-55.55));
#347=CARTESIAN_POINT('',(0.,0.,-55.55));
#348=CARTESIAN_POINT('',(4.02799400300039E-32,9.46633086265214E-30,68.2499999999999));
#349=MECHANICAL_DESIGN_GEOMETRIC_PRESENTATION_REPRESENTATION('',(#187,#188,
#189,#190,#191,#192,#193),#350);
#350=(
GEOMETRIC_REPRESENTATION_CONTEXT(3)
GLOBAL_UNCERTAINTY_ASSIGNED_CONTEXT((#351))
GLOBAL_UNIT_ASSIGNED_CONTEXT((#357,#353,#352))
REPRESENTATION_CONTEXT('1593430847413','TOP_LEVEL_ASSEMBLY_PART')
);
#351=UNCERTAINTY_MEASURE_WITH_UNIT(LENGTH_MEASURE(2.E-5),#357,
'DISTANCE_ACCURACY_VALUE','Maximum Tolerance applied to model');
#352=(
NAMED_UNIT(*)
SI_UNIT($,.STERADIAN.)
SOLID_ANGLE_UNIT()
);
#353=(
CONVERSION_BASED_UNIT('DEGREE',#355)
NAMED_UNIT(#354)
PLANE_ANGLE_UNIT()
);
#354=DIMENSIONAL_EXPONENTS(0.,0.,0.,0.,0.,0.,0.);
#355=PLANE_ANGLE_MEASURE_WITH_UNIT(PLANE_ANGLE_MEASURE(0.0174532925),#356);
#356=(
NAMED_UNIT(*)
PLANE_ANGLE_UNIT()
SI_UNIT($,.RADIAN.)
);
#357=(
LENGTH_UNIT()
NAMED_UNIT(*)
SI_UNIT(.MILLI.,.METRE.)
);
ENDSEC;
END-ISO-10303-21;
