ISO-10303-21;
HEADER;
/* Generated by software containing ST-Developer
 * from STEP Tools, Inc. (www.steptools.com) 
 */
/* OPTION: using custom schema-name function */

FILE_DESCRIPTION(
/* description */ (''),
/* implementation_level */ '2;1');

FILE_NAME(
/* name */ '1493026244524.stp',
/* time_stamp */ '2017-04-24T11:30:48+02:00',
/* author */ (''),
/* organization */ ('SMS'),
/* preprocessor_version */ 'ST-DEVELOPER v15',
/* originating_system */ 'SIEMENS PLM Software NX 8.5',
/* authorisation */ '');

FILE_SCHEMA (('AUTOMOTIVE_DESIGN { 1 0 10303 214 3 1 1 1 }'));
ENDSEC;

DATA;
#10=CONSTRUCTIVE_GEOMETRY_REPRESENTATION_RELATIONSHIP(
'supplemental geometry','',#26,#11);
#11=CONSTRUCTIVE_GEOMETRY_REPRESENTATION('supplemental geometry',(#193,
#194,#195,#196),#319);
#12=GEOMETRICALLY_BOUNDED_WIREFRAME_SHAPE_REPRESENTATION(
'A393.14-2625203-636200794290158282-1-None',(#27),#319);
#13=SHAPE_REPRESENTATION_RELATIONSHIP('None',
'relationship between A393.14-2625203-636200794290158282-1-None and A3
93.14-2625203-636200794290158282-1-None',#26,#15);
#14=SHAPE_REPRESENTATION_RELATIONSHIP('None',
'relationship between A393.14-2625203-636200794290158282-1-None and A3
93.14-2625203-636200794290158282-1-None',#26,#12);
#15=ADVANCED_BREP_SHAPE_REPRESENTATION(
'A393.14-2625203-636200794290158282-1-None',(#33),#319);
#16=SHAPE_DEFINITION_REPRESENTATION(#17,#26);
#17=PRODUCT_DEFINITION_SHAPE('','',#18);
#18=PRODUCT_DEFINITION(' ','',#20,#19);
#19=PRODUCT_DEFINITION_CONTEXT('part definition',#25,'design');
#20=PRODUCT_DEFINITION_FORMATION_WITH_SPECIFIED_SOURCE(' ',' ',#22,
 .NOT_KNOWN.);
#21=PRODUCT_RELATED_PRODUCT_CATEGORY('part','',(#22));
#22=PRODUCT('A393.14-2625203-636200794290158282-1',
'A393.14-2625203-636200794290158282-1',' ',(#23));
#23=PRODUCT_CONTEXT(' ',#25,'mechanical');
#24=APPLICATION_PROTOCOL_DEFINITION('international standard',
'automotive_design',2010,#25);
#25=APPLICATION_CONTEXT(
'core data for automotive mechanical design processes');
#26=SHAPE_REPRESENTATION('A393.14-2625203-636200794290158282-1-None',(#192),
#319);
#27=GEOMETRIC_CURVE_SET('None',(#277,#278,#279));
#28=SURFACE_STYLE_USAGE(.BOTH.,#29);
#29=SURFACE_SIDE_STYLE('',(#30));
#30=SURFACE_STYLE_FILL_AREA(#31);
#31=FILL_AREA_STYLE('',(#32));
#32=FILL_AREA_STYLE_COLOUR('',#191);
#33=MANIFOLD_SOLID_BREP('NOCUT',#34);
#34=CLOSED_SHELL('',(#45,#46,#47,#48,#49,#50,#51,#52,#53,#54,#55,#56));
#35=TOROIDAL_SURFACE('',#219,20.,1.);
#36=PLANE('',#202);
#37=PLANE('',#204);
#38=PLANE('',#210);
#39=PLANE('',#214);
#40=PLANE('',#218);
#41=FACE_OUTER_BOUND('',#85,.T.);
#42=FACE_OUTER_BOUND('',#86,.T.);
#43=CONICAL_SURFACE('',#201,21.,60.0000000000001);
#44=CONICAL_SURFACE('',#206,11.7,44.9999999999999);
#45=ADVANCED_FACE('',(#61,#62),#57,.T.);
#46=ADVANCED_FACE('',(#63,#64),#43,.T.);
#47=ADVANCED_FACE('',(#41),#36,.T.);
#48=ADVANCED_FACE('',(#42),#37,.T.);
#49=ADVANCED_FACE('',(#65,#66),#44,.T.);
#50=ADVANCED_FACE('',(#67,#68),#58,.T.);
#51=ADVANCED_FACE('',(#69,#70),#38,.T.);
#52=ADVANCED_FACE('',(#71,#72),#59,.T.);
#53=ADVANCED_FACE('',(#73,#74),#39,.T.);
#54=ADVANCED_FACE('',(#75,#76),#60,.T.);
#55=ADVANCED_FACE('',(#77,#78),#40,.T.);
#56=ADVANCED_FACE('',(#79,#80),#35,.T.);
#57=CYLINDRICAL_SURFACE('',#199,21.);
#58=CYLINDRICAL_SURFACE('',#208,12.7);
#59=CYLINDRICAL_SURFACE('',#212,12.5);
#60=CYLINDRICAL_SURFACE('',#216,16.05);
#61=FACE_BOUND('',#81,.T.);
#62=FACE_BOUND('',#82,.T.);
#63=FACE_BOUND('',#83,.T.);
#64=FACE_BOUND('',#84,.T.);
#65=FACE_BOUND('',#87,.T.);
#66=FACE_BOUND('',#88,.T.);
#67=FACE_BOUND('',#89,.T.);
#68=FACE_BOUND('',#90,.T.);
#69=FACE_BOUND('',#91,.T.);
#70=FACE_BOUND('',#92,.T.);
#71=FACE_BOUND('',#93,.T.);
#72=FACE_BOUND('',#94,.T.);
#73=FACE_BOUND('',#95,.T.);
#74=FACE_BOUND('',#96,.T.);
#75=FACE_BOUND('',#97,.T.);
#76=FACE_BOUND('',#98,.T.);
#77=FACE_BOUND('',#99,.T.);
#78=FACE_BOUND('',#100,.T.);
#79=FACE_BOUND('',#101,.T.);
#80=FACE_BOUND('',#102,.T.);
#81=EDGE_LOOP('',(#103));
#82=EDGE_LOOP('',(#104));
#83=EDGE_LOOP('',(#105));
#84=EDGE_LOOP('',(#106));
#85=EDGE_LOOP('',(#107));
#86=EDGE_LOOP('',(#108));
#87=EDGE_LOOP('',(#109));
#88=EDGE_LOOP('',(#110));
#89=EDGE_LOOP('',(#111));
#90=EDGE_LOOP('',(#112));
#91=EDGE_LOOP('',(#113));
#92=EDGE_LOOP('',(#114));
#93=EDGE_LOOP('',(#115));
#94=EDGE_LOOP('',(#116));
#95=EDGE_LOOP('',(#117));
#96=EDGE_LOOP('',(#118));
#97=EDGE_LOOP('',(#119));
#98=EDGE_LOOP('',(#120));
#99=EDGE_LOOP('',(#121));
#100=EDGE_LOOP('',(#122));
#101=EDGE_LOOP('',(#123));
#102=EDGE_LOOP('',(#124));
#103=ORIENTED_EDGE('',*,*,#136,.T.);
#104=ORIENTED_EDGE('',*,*,#137,.F.);
#105=ORIENTED_EDGE('',*,*,#138,.T.);
#106=ORIENTED_EDGE('',*,*,#136,.F.);
#107=ORIENTED_EDGE('',*,*,#138,.F.);
#108=ORIENTED_EDGE('',*,*,#139,.T.);
#109=ORIENTED_EDGE('',*,*,#140,.T.);
#110=ORIENTED_EDGE('',*,*,#139,.F.);
#111=ORIENTED_EDGE('',*,*,#141,.T.);
#112=ORIENTED_EDGE('',*,*,#140,.F.);
#113=ORIENTED_EDGE('',*,*,#142,.T.);
#114=ORIENTED_EDGE('',*,*,#141,.F.);
#115=ORIENTED_EDGE('',*,*,#143,.T.);
#116=ORIENTED_EDGE('',*,*,#142,.F.);
#117=ORIENTED_EDGE('',*,*,#144,.T.);
#118=ORIENTED_EDGE('',*,*,#143,.F.);
#119=ORIENTED_EDGE('',*,*,#145,.T.);
#120=ORIENTED_EDGE('',*,*,#144,.F.);
#121=ORIENTED_EDGE('',*,*,#146,.T.);
#122=ORIENTED_EDGE('',*,*,#145,.F.);
#123=ORIENTED_EDGE('',*,*,#137,.T.);
#124=ORIENTED_EDGE('',*,*,#146,.F.);
#125=VERTEX_POINT('',#285);
#126=VERTEX_POINT('',#287);
#127=VERTEX_POINT('',#290);
#128=VERTEX_POINT('',#294);
#129=VERTEX_POINT('',#297);
#130=VERTEX_POINT('',#300);
#131=VERTEX_POINT('',#303);
#132=VERTEX_POINT('',#306);
#133=VERTEX_POINT('',#309);
#134=VERTEX_POINT('',#312);
#135=VERTEX_POINT('',#315);
#136=EDGE_CURVE('',#125,#125,#147,.T.);
#137=EDGE_CURVE('',#126,#126,#148,.T.);
#138=EDGE_CURVE('',#127,#127,#149,.T.);
#139=EDGE_CURVE('',#128,#128,#150,.T.);
#140=EDGE_CURVE('',#129,#129,#151,.T.);
#141=EDGE_CURVE('',#130,#130,#152,.T.);
#142=EDGE_CURVE('',#131,#131,#153,.T.);
#143=EDGE_CURVE('',#132,#132,#154,.T.);
#144=EDGE_CURVE('',#133,#133,#155,.T.);
#145=EDGE_CURVE('',#134,#134,#156,.T.);
#146=EDGE_CURVE('',#135,#135,#157,.T.);
#147=CIRCLE('',#197,21.);
#148=CIRCLE('',#198,21.);
#149=CIRCLE('',#200,15.8038475772934);
#150=CIRCLE('',#203,11.7);
#151=CIRCLE('',#205,12.7);
#152=CIRCLE('',#207,12.7);
#153=CIRCLE('',#209,12.5);
#154=CIRCLE('',#211,12.5);
#155=CIRCLE('',#213,16.05);
#156=CIRCLE('',#215,16.05);
#157=CIRCLE('',#217,20.);
#158=CURVE_STYLE('',#162,POSITIVE_LENGTH_MEASURE(0.13),#189);
#159=CURVE_STYLE('',#163,POSITIVE_LENGTH_MEASURE(0.18),#189);
#160=CURVE_STYLE('',#164,POSITIVE_LENGTH_MEASURE(0.18),#189);
#161=CURVE_STYLE('',#165,POSITIVE_LENGTH_MEASURE(0.18),#190);
#162=DRAUGHTING_PRE_DEFINED_CURVE_FONT('continuous');
#163=DRAUGHTING_PRE_DEFINED_CURVE_FONT('continuous');
#164=DRAUGHTING_PRE_DEFINED_CURVE_FONT('continuous');
#165=DRAUGHTING_PRE_DEFINED_CURVE_FONT('continuous');
#166=PRESENTATION_LAYER_ASSIGNMENT('1','Layer 1',(#277,#278,#279,#193,#194,
#195,#196,#33));
#167=STYLED_ITEM('',(#175),#277);
#168=STYLED_ITEM('',(#176),#278);
#169=STYLED_ITEM('',(#177),#279);
#170=STYLED_ITEM('',(#178),#193);
#171=STYLED_ITEM('',(#179),#194);
#172=STYLED_ITEM('',(#180),#195);
#173=STYLED_ITEM('',(#181),#196);
#174=STYLED_ITEM('',(#182),#33);
#175=PRESENTATION_STYLE_ASSIGNMENT((#183));
#176=PRESENTATION_STYLE_ASSIGNMENT((#184));
#177=PRESENTATION_STYLE_ASSIGNMENT((#185));
#178=PRESENTATION_STYLE_ASSIGNMENT((#158));
#179=PRESENTATION_STYLE_ASSIGNMENT((#159));
#180=PRESENTATION_STYLE_ASSIGNMENT((#160));
#181=PRESENTATION_STYLE_ASSIGNMENT((#161));
#182=PRESENTATION_STYLE_ASSIGNMENT((#28));
#183=POINT_STYLE('',#186,POSITIVE_LENGTH_MEASURE(3.),#189);
#184=POINT_STYLE('',#187,POSITIVE_LENGTH_MEASURE(3.),#189);
#185=POINT_STYLE('',#188,POSITIVE_LENGTH_MEASURE(3.),#190);
#186=PRE_DEFINED_POINT_MARKER_SYMBOL('plus');
#187=PRE_DEFINED_POINT_MARKER_SYMBOL('plus');
#188=PRE_DEFINED_POINT_MARKER_SYMBOL('plus');
#189=COLOUR_RGB('Strong Stone',0.576470588235294,0.54508278019379,0.392156862745098);
#190=COLOUR_RGB('Medium Maroon',0.6,0.4,0.4);
#191=COLOUR_RGB('TLS_NOCUT',0.499992370489052,0.499992370489052,0.499992370489052);
#192=AXIS2_PLACEMENT_3D('',#276,#220,#221);
#193=AXIS2_PLACEMENT_3D('',#280,#222,#223);
#194=AXIS2_PLACEMENT_3D('PCS',#281,#224,#225);
#195=AXIS2_PLACEMENT_3D('MCS',#282,#226,#227);
#196=AXIS2_PLACEMENT_3D('CSW',#283,#228,#229);
#197=AXIS2_PLACEMENT_3D('',#284,#230,#231);
#198=AXIS2_PLACEMENT_3D('',#286,#232,#233);
#199=AXIS2_PLACEMENT_3D('',#288,#234,#235);
#200=AXIS2_PLACEMENT_3D('',#289,#236,#237);
#201=AXIS2_PLACEMENT_3D('',#291,#238,#239);
#202=AXIS2_PLACEMENT_3D('',#292,#240,#241);
#203=AXIS2_PLACEMENT_3D('',#293,#242,#243);
#204=AXIS2_PLACEMENT_3D('',#295,#244,#245);
#205=AXIS2_PLACEMENT_3D('',#296,#246,#247);
#206=AXIS2_PLACEMENT_3D('',#298,#248,#249);
#207=AXIS2_PLACEMENT_3D('',#299,#250,#251);
#208=AXIS2_PLACEMENT_3D('',#301,#252,#253);
#209=AXIS2_PLACEMENT_3D('',#302,#254,#255);
#210=AXIS2_PLACEMENT_3D('',#304,#256,#257);
#211=AXIS2_PLACEMENT_3D('',#305,#258,#259);
#212=AXIS2_PLACEMENT_3D('',#307,#260,#261);
#213=AXIS2_PLACEMENT_3D('',#308,#262,#263);
#214=AXIS2_PLACEMENT_3D('',#310,#264,#265);
#215=AXIS2_PLACEMENT_3D('',#311,#266,#267);
#216=AXIS2_PLACEMENT_3D('',#313,#268,#269);
#217=AXIS2_PLACEMENT_3D('',#314,#270,#271);
#218=AXIS2_PLACEMENT_3D('',#316,#272,#273);
#219=AXIS2_PLACEMENT_3D('',#317,#274,#275);
#220=DIRECTION('',(0.,0.,1.));
#221=DIRECTION('',(1.,0.,0.));
#222=DIRECTION('',(0.,0.,1.));
#223=DIRECTION('',(1.,0.,0.));
#224=DIRECTION('',(0.,0.,1.));
#225=DIRECTION('',(1.,0.,0.));
#226=DIRECTION('',(0.,0.,1.));
#227=DIRECTION('',(1.,0.,0.));
#228=DIRECTION('',(0.,0.,1.));
#229=DIRECTION('',(1.,0.,0.));
#230=DIRECTION('',(0.,0.,1.));
#231=DIRECTION('',(1.,0.,0.));
#232=DIRECTION('',(0.,0.,1.));
#233=DIRECTION('',(1.,0.,0.));
#234=DIRECTION('',(0.,0.,1.));
#235=DIRECTION('',(1.,0.,0.));
#236=DIRECTION('',(0.,0.,1.));
#237=DIRECTION('',(1.,0.,0.));
#238=DIRECTION('',(0.,0.,1.));
#239=DIRECTION('',(1.,0.,3.16654548696396E-017));
#240=DIRECTION('',(0.,0.,-1.));
#241=DIRECTION('',(-1.,0.,0.));
#242=DIRECTION('',(0.,0.,1.));
#243=DIRECTION('',(1.,0.,0.));
#244=DIRECTION('',(0.,0.,1.));
#245=DIRECTION('',(1.,0.,0.));
#246=DIRECTION('',(0.,0.,1.));
#247=DIRECTION('',(1.,0.,0.));
#248=DIRECTION('',(0.,0.,-1.));
#249=DIRECTION('',(-1.,0.,0.));
#250=DIRECTION('',(0.,0.,1.));
#251=DIRECTION('',(1.,0.,0.));
#252=DIRECTION('',(0.,0.,1.));
#253=DIRECTION('',(1.,0.,0.));
#254=DIRECTION('',(0.,0.,1.));
#255=DIRECTION('',(1.,0.,0.));
#256=DIRECTION('',(0.,0.,-1.));
#257=DIRECTION('',(-1.,0.,0.));
#258=DIRECTION('',(0.,0.,1.));
#259=DIRECTION('',(1.,0.,0.));
#260=DIRECTION('',(0.,0.,1.));
#261=DIRECTION('',(1.,0.,0.));
#262=DIRECTION('',(0.,0.,1.));
#263=DIRECTION('',(1.,0.,0.));
#264=DIRECTION('',(0.,0.,1.));
#265=DIRECTION('',(1.,0.,0.));
#266=DIRECTION('',(0.,0.,1.));
#267=DIRECTION('',(1.,0.,0.));
#268=DIRECTION('',(0.,0.,1.));
#269=DIRECTION('',(1.,0.,0.));
#270=DIRECTION('',(0.,0.,1.));
#271=DIRECTION('',(1.,0.,0.));
#272=DIRECTION('',(0.,0.,1.));
#273=DIRECTION('',(1.,0.,0.));
#274=DIRECTION('',(0.,0.,1.));
#275=DIRECTION('',(1.,0.,0.));
#276=CARTESIAN_POINT('',(0.,0.,0.));
#277=CARTESIAN_POINT('',(0.,0.,0.));
#278=CARTESIAN_POINT('',(0.,0.,-57.));
#279=CARTESIAN_POINT('',(0.,0.,-191.));
#280=CARTESIAN_POINT('',(0.,0.,0.));
#281=CARTESIAN_POINT('',(0.,0.,0.));
#282=CARTESIAN_POINT('',(0.,0.,-57.));
#283=CARTESIAN_POINT('',(0.,0.,-191.));
#284=CARTESIAN_POINT('',(0.,0.,-200.));
#285=CARTESIAN_POINT('',(21.,0.,-200.));
#286=CARTESIAN_POINT('',(0.,0.,-184.));
#287=CARTESIAN_POINT('',(21.,0.,-184.));
#288=CARTESIAN_POINT('',(0.,0.,-203.));
#289=CARTESIAN_POINT('',(0.,0.,-203.));
#290=CARTESIAN_POINT('',(15.8038475772934,0.,-203.));
#291=CARTESIAN_POINT('',(0.,0.,-200.));
#292=CARTESIAN_POINT('',(-10.2045735194571,0.,-203.));
#293=CARTESIAN_POINT('',(0.,0.,0.));
#294=CARTESIAN_POINT('',(11.7,0.,0.));
#295=CARTESIAN_POINT('',(0.,0.,0.));
#296=CARTESIAN_POINT('',(0.,0.,-1.));
#297=CARTESIAN_POINT('',(12.7,0.,-1.));
#298=CARTESIAN_POINT('',(0.,0.,0.));
#299=CARTESIAN_POINT('',(0.,0.,-154.));
#300=CARTESIAN_POINT('',(12.7,0.,-154.));
#301=CARTESIAN_POINT('',(0.,0.,-203.));
#302=CARTESIAN_POINT('',(0.,0.,-154.));
#303=CARTESIAN_POINT('',(12.5,0.,-154.));
#304=CARTESIAN_POINT('',(-12.7,0.,-154.));
#305=CARTESIAN_POINT('',(0.,0.,-156.));
#306=CARTESIAN_POINT('',(12.5,0.,-156.));
#307=CARTESIAN_POINT('',(0.,0.,-203.));
#308=CARTESIAN_POINT('',(0.,0.,-156.));
#309=CARTESIAN_POINT('',(16.05,0.,-156.));
#310=CARTESIAN_POINT('',(-12.5,0.,-156.));
#311=CARTESIAN_POINT('',(0.,0.,-183.));
#312=CARTESIAN_POINT('',(16.05,0.,-183.));
#313=CARTESIAN_POINT('',(0.,0.,-203.));
#314=CARTESIAN_POINT('',(0.,0.,-183.));
#315=CARTESIAN_POINT('',(20.,0.,-183.));
#316=CARTESIAN_POINT('',(-16.05,0.,-183.));
#317=CARTESIAN_POINT('',(0.,0.,-184.));
#318=MECHANICAL_DESIGN_GEOMETRIC_PRESENTATION_REPRESENTATION('',(#167,#168,
#169,#170,#171,#172,#173,#174),#319);
#319=(
GEOMETRIC_REPRESENTATION_CONTEXT(3)
GLOBAL_UNCERTAINTY_ASSIGNED_CONTEXT((#320))
GLOBAL_UNIT_ASSIGNED_CONTEXT((#326,#322,#321))
REPRESENTATION_CONTEXT('1493026244524','TOP_LEVEL_ASSEMBLY_PART')
);
#320=UNCERTAINTY_MEASURE_WITH_UNIT(LENGTH_MEASURE(2.E-005),#326,
'DISTANCE_ACCURACY_VALUE','Maximum Tolerance applied to model');
#321=(
NAMED_UNIT(*)
SI_UNIT($,.STERADIAN.)
SOLID_ANGLE_UNIT()
);
#322=(
CONVERSION_BASED_UNIT('DEGREE',#324)
NAMED_UNIT(#323)
PLANE_ANGLE_UNIT()
);
#323=DIMENSIONAL_EXPONENTS(0.,0.,0.,0.,0.,0.,0.);
#324=PLANE_ANGLE_MEASURE_WITH_UNIT(PLANE_ANGLE_MEASURE(0.0174532925),#325);
#325=(
NAMED_UNIT(*)
PLANE_ANGLE_UNIT()
SI_UNIT($,.RADIAN.)
);
#326=(
LENGTH_UNIT()
NAMED_UNIT(*)
SI_UNIT(.MILLI.,.METRE.)
);
ENDSEC;
END-ISO-10303-21;
