ISO-10303-21;
HEADER;
/* Generated by software containing ST-Developer
 * from STEP Tools, Inc. (www.steptools.com) 
 */
/* OPTION: using custom schema-name function */

FILE_DESCRIPTION(
/* description */ (''),
/* implementation_level */ '2;1');

FILE_NAME(
/* name */ '1493026226816.stp',
/* time_stamp */ '2017-04-24T11:30:30+02:00',
/* author */ (''),
/* organization */ ('SMS'),
/* preprocessor_version */ 'ST-DEVELOPER v15',
/* originating_system */ 'SIEMENS PLM Software NX 8.5',
/* authorisation */ '');

FILE_SCHEMA (('AUTOMOTIVE_DESIGN { 1 0 10303 214 3 1 1 1 }'));
ENDSEC;

DATA;
#10=CONSTRUCTIVE_GEOMETRY_REPRESENTATION_RELATIONSHIP(
'supplemental geometry','',#26,#11);
#11=CONSTRUCTIVE_GEOMETRY_REPRESENTATION('supplemental geometry',(#171,
#172,#173,#174),#279);
#12=GEOMETRICALLY_BOUNDED_WIREFRAME_SHAPE_REPRESENTATION(
'A393.14-1925203-636200794265158442-1-None',(#27),#279);
#13=SHAPE_REPRESENTATION_RELATIONSHIP('None',
'relationship between A393.14-1925203-636200794265158442-1-None and A3
93.14-1925203-636200794265158442-1-None',#26,#15);
#14=SHAPE_REPRESENTATION_RELATIONSHIP('None',
'relationship between A393.14-1925203-636200794265158442-1-None and A3
93.14-1925203-636200794265158442-1-None',#26,#12);
#15=ADVANCED_BREP_SHAPE_REPRESENTATION(
'A393.14-1925203-636200794265158442-1-None',(#33),#279);
#16=SHAPE_DEFINITION_REPRESENTATION(#17,#26);
#17=PRODUCT_DEFINITION_SHAPE('','',#18);
#18=PRODUCT_DEFINITION(' ','',#20,#19);
#19=PRODUCT_DEFINITION_CONTEXT('part definition',#25,'design');
#20=PRODUCT_DEFINITION_FORMATION_WITH_SPECIFIED_SOURCE(' ',' ',#22,
 .NOT_KNOWN.);
#21=PRODUCT_RELATED_PRODUCT_CATEGORY('part','',(#22));
#22=PRODUCT('A393.14-1925203-636200794265158442-1',
'A393.14-1925203-636200794265158442-1',' ',(#23));
#23=PRODUCT_CONTEXT(' ',#25,'mechanical');
#24=APPLICATION_PROTOCOL_DEFINITION('international standard',
'automotive_design',2010,#25);
#25=APPLICATION_CONTEXT(
'core data for automotive mechanical design processes');
#26=SHAPE_REPRESENTATION('A393.14-1925203-636200794265158442-1-None',(#170),
#279);
#27=GEOMETRIC_CURVE_SET('None',(#243,#244,#245));
#28=SURFACE_STYLE_USAGE(.BOTH.,#29);
#29=SURFACE_SIDE_STYLE('',(#30));
#30=SURFACE_STYLE_FILL_AREA(#31);
#31=FILL_AREA_STYLE('',(#32));
#32=FILL_AREA_STYLE_COLOUR('',#169);
#33=MANIFOLD_SOLID_BREP('NOCUT',#34);
#34=CLOSED_SHELL('',(#57,#58,#59,#60,#61,#62,#63,#64,#65,#66));
#35=TOROIDAL_SURFACE('',#188,20.,1.);
#36=CYLINDRICAL_SURFACE('',#180,9.5);
#37=CYLINDRICAL_SURFACE('',#184,16.05);
#38=CYLINDRICAL_SURFACE('',#190,21.);
#39=CONICAL_SURFACE('',#178,8.5,45.);
#40=CONICAL_SURFACE('',#192,21.,60.0000000000001);
#41=FACE_BOUND('',#74,.T.);
#42=FACE_BOUND('',#75,.T.);
#43=FACE_BOUND('',#76,.T.);
#44=FACE_BOUND('',#77,.T.);
#45=FACE_BOUND('',#78,.T.);
#46=FACE_BOUND('',#79,.T.);
#47=FACE_BOUND('',#80,.T.);
#48=FACE_BOUND('',#81,.T.);
#49=FACE_BOUND('',#82,.T.);
#50=FACE_BOUND('',#83,.T.);
#51=FACE_BOUND('',#84,.T.);
#52=FACE_BOUND('',#85,.T.);
#53=FACE_BOUND('',#86,.T.);
#54=FACE_BOUND('',#87,.T.);
#55=FACE_BOUND('',#88,.T.);
#56=FACE_BOUND('',#89,.T.);
#57=ADVANCED_FACE('',(#71),#67,.T.);
#58=ADVANCED_FACE('',(#41,#42),#39,.T.);
#59=ADVANCED_FACE('',(#43,#44),#36,.T.);
#60=ADVANCED_FACE('',(#45,#46),#68,.T.);
#61=ADVANCED_FACE('',(#47,#48),#37,.T.);
#62=ADVANCED_FACE('',(#49,#50),#69,.T.);
#63=ADVANCED_FACE('',(#51,#52),#35,.T.);
#64=ADVANCED_FACE('',(#53,#54),#38,.T.);
#65=ADVANCED_FACE('',(#55,#56),#40,.T.);
#66=ADVANCED_FACE('',(#72),#70,.T.);
#67=PLANE('',#176);
#68=PLANE('',#182);
#69=PLANE('',#186);
#70=PLANE('',#193);
#71=FACE_OUTER_BOUND('',#73,.T.);
#72=FACE_OUTER_BOUND('',#90,.T.);
#73=EDGE_LOOP('',(#91));
#74=EDGE_LOOP('',(#92));
#75=EDGE_LOOP('',(#93));
#76=EDGE_LOOP('',(#94));
#77=EDGE_LOOP('',(#95));
#78=EDGE_LOOP('',(#96));
#79=EDGE_LOOP('',(#97));
#80=EDGE_LOOP('',(#98));
#81=EDGE_LOOP('',(#99));
#82=EDGE_LOOP('',(#100));
#83=EDGE_LOOP('',(#101));
#84=EDGE_LOOP('',(#102));
#85=EDGE_LOOP('',(#103));
#86=EDGE_LOOP('',(#104));
#87=EDGE_LOOP('',(#105));
#88=EDGE_LOOP('',(#106));
#89=EDGE_LOOP('',(#107));
#90=EDGE_LOOP('',(#108));
#91=ORIENTED_EDGE('',*,*,#118,.T.);
#92=ORIENTED_EDGE('',*,*,#119,.T.);
#93=ORIENTED_EDGE('',*,*,#118,.F.);
#94=ORIENTED_EDGE('',*,*,#120,.T.);
#95=ORIENTED_EDGE('',*,*,#119,.F.);
#96=ORIENTED_EDGE('',*,*,#121,.T.);
#97=ORIENTED_EDGE('',*,*,#120,.F.);
#98=ORIENTED_EDGE('',*,*,#122,.T.);
#99=ORIENTED_EDGE('',*,*,#121,.F.);
#100=ORIENTED_EDGE('',*,*,#123,.T.);
#101=ORIENTED_EDGE('',*,*,#122,.F.);
#102=ORIENTED_EDGE('',*,*,#124,.T.);
#103=ORIENTED_EDGE('',*,*,#123,.F.);
#104=ORIENTED_EDGE('',*,*,#125,.T.);
#105=ORIENTED_EDGE('',*,*,#124,.F.);
#106=ORIENTED_EDGE('',*,*,#126,.T.);
#107=ORIENTED_EDGE('',*,*,#125,.F.);
#108=ORIENTED_EDGE('',*,*,#126,.F.);
#109=VERTEX_POINT('',#251);
#110=VERTEX_POINT('',#254);
#111=VERTEX_POINT('',#257);
#112=VERTEX_POINT('',#260);
#113=VERTEX_POINT('',#263);
#114=VERTEX_POINT('',#266);
#115=VERTEX_POINT('',#269);
#116=VERTEX_POINT('',#272);
#117=VERTEX_POINT('',#275);
#118=EDGE_CURVE('',#109,#109,#127,.T.);
#119=EDGE_CURVE('',#110,#110,#128,.T.);
#120=EDGE_CURVE('',#111,#111,#129,.T.);
#121=EDGE_CURVE('',#112,#112,#130,.T.);
#122=EDGE_CURVE('',#113,#113,#131,.T.);
#123=EDGE_CURVE('',#114,#114,#132,.T.);
#124=EDGE_CURVE('',#115,#115,#133,.T.);
#125=EDGE_CURVE('',#116,#116,#134,.T.);
#126=EDGE_CURVE('',#117,#117,#135,.T.);
#127=CIRCLE('',#175,8.5);
#128=CIRCLE('',#177,9.5);
#129=CIRCLE('',#179,9.5);
#130=CIRCLE('',#181,16.05);
#131=CIRCLE('',#183,16.05);
#132=CIRCLE('',#185,20.);
#133=CIRCLE('',#187,21.);
#134=CIRCLE('',#189,21.);
#135=CIRCLE('',#191,15.8038475772934);
#136=CURVE_STYLE('',#140,POSITIVE_LENGTH_MEASURE(0.13),#167);
#137=CURVE_STYLE('',#141,POSITIVE_LENGTH_MEASURE(0.18),#167);
#138=CURVE_STYLE('',#142,POSITIVE_LENGTH_MEASURE(0.18),#167);
#139=CURVE_STYLE('',#143,POSITIVE_LENGTH_MEASURE(0.18),#168);
#140=DRAUGHTING_PRE_DEFINED_CURVE_FONT('continuous');
#141=DRAUGHTING_PRE_DEFINED_CURVE_FONT('continuous');
#142=DRAUGHTING_PRE_DEFINED_CURVE_FONT('continuous');
#143=DRAUGHTING_PRE_DEFINED_CURVE_FONT('continuous');
#144=PRESENTATION_LAYER_ASSIGNMENT('1','Layer 1',(#243,#244,#245,#171,#172,
#173,#174,#33));
#145=STYLED_ITEM('',(#153),#243);
#146=STYLED_ITEM('',(#154),#244);
#147=STYLED_ITEM('',(#155),#245);
#148=STYLED_ITEM('',(#156),#171);
#149=STYLED_ITEM('',(#157),#172);
#150=STYLED_ITEM('',(#158),#173);
#151=STYLED_ITEM('',(#159),#174);
#152=STYLED_ITEM('',(#160),#33);
#153=PRESENTATION_STYLE_ASSIGNMENT((#161));
#154=PRESENTATION_STYLE_ASSIGNMENT((#162));
#155=PRESENTATION_STYLE_ASSIGNMENT((#163));
#156=PRESENTATION_STYLE_ASSIGNMENT((#136));
#157=PRESENTATION_STYLE_ASSIGNMENT((#137));
#158=PRESENTATION_STYLE_ASSIGNMENT((#138));
#159=PRESENTATION_STYLE_ASSIGNMENT((#139));
#160=PRESENTATION_STYLE_ASSIGNMENT((#28));
#161=POINT_STYLE('',#164,POSITIVE_LENGTH_MEASURE(3.),#167);
#162=POINT_STYLE('',#165,POSITIVE_LENGTH_MEASURE(3.),#167);
#163=POINT_STYLE('',#166,POSITIVE_LENGTH_MEASURE(3.),#168);
#164=PRE_DEFINED_POINT_MARKER_SYMBOL('plus');
#165=PRE_DEFINED_POINT_MARKER_SYMBOL('plus');
#166=PRE_DEFINED_POINT_MARKER_SYMBOL('plus');
#167=COLOUR_RGB('Strong Stone',0.576470588235294,0.54508278019379,0.392156862745098);
#168=COLOUR_RGB('Medium Maroon',0.6,0.4,0.4);
#169=COLOUR_RGB('TLS_NOCUT',0.499992370489052,0.499992370489052,0.499992370489052);
#170=AXIS2_PLACEMENT_3D('',#242,#194,#195);
#171=AXIS2_PLACEMENT_3D('',#246,#196,#197);
#172=AXIS2_PLACEMENT_3D('PCS',#247,#198,#199);
#173=AXIS2_PLACEMENT_3D('MCS',#248,#200,#201);
#174=AXIS2_PLACEMENT_3D('CSW',#249,#202,#203);
#175=AXIS2_PLACEMENT_3D('',#250,#204,#205);
#176=AXIS2_PLACEMENT_3D('',#252,#206,#207);
#177=AXIS2_PLACEMENT_3D('',#253,#208,#209);
#178=AXIS2_PLACEMENT_3D('',#255,#210,#211);
#179=AXIS2_PLACEMENT_3D('',#256,#212,#213);
#180=AXIS2_PLACEMENT_3D('',#258,#214,#215);
#181=AXIS2_PLACEMENT_3D('',#259,#216,#217);
#182=AXIS2_PLACEMENT_3D('',#261,#218,#219);
#183=AXIS2_PLACEMENT_3D('',#262,#220,#221);
#184=AXIS2_PLACEMENT_3D('',#264,#222,#223);
#185=AXIS2_PLACEMENT_3D('',#265,#224,#225);
#186=AXIS2_PLACEMENT_3D('',#267,#226,#227);
#187=AXIS2_PLACEMENT_3D('',#268,#228,#229);
#188=AXIS2_PLACEMENT_3D('',#270,#230,#231);
#189=AXIS2_PLACEMENT_3D('',#271,#232,#233);
#190=AXIS2_PLACEMENT_3D('',#273,#234,#235);
#191=AXIS2_PLACEMENT_3D('',#274,#236,#237);
#192=AXIS2_PLACEMENT_3D('',#276,#238,#239);
#193=AXIS2_PLACEMENT_3D('',#277,#240,#241);
#194=DIRECTION('',(0.,0.,1.));
#195=DIRECTION('',(1.,0.,0.));
#196=DIRECTION('',(0.,0.,1.));
#197=DIRECTION('',(1.,0.,0.));
#198=DIRECTION('',(0.,0.,1.));
#199=DIRECTION('',(1.,0.,0.));
#200=DIRECTION('',(0.,0.,1.));
#201=DIRECTION('',(1.,0.,0.));
#202=DIRECTION('',(0.,0.,1.));
#203=DIRECTION('',(1.,0.,0.));
#204=DIRECTION('',(0.,0.,1.));
#205=DIRECTION('',(1.,0.,0.));
#206=DIRECTION('',(0.,0.,1.));
#207=DIRECTION('',(1.,0.,0.));
#208=DIRECTION('',(0.,0.,1.));
#209=DIRECTION('',(1.,0.,0.));
#210=DIRECTION('',(0.,0.,-1.));
#211=DIRECTION('',(-1.,0.,0.));
#212=DIRECTION('',(0.,0.,1.));
#213=DIRECTION('',(1.,0.,0.));
#214=DIRECTION('',(0.,0.,1.));
#215=DIRECTION('',(1.,0.,0.));
#216=DIRECTION('',(0.,0.,1.));
#217=DIRECTION('',(1.,0.,0.));
#218=DIRECTION('',(0.,0.,1.));
#219=DIRECTION('',(1.,0.,0.));
#220=DIRECTION('',(0.,0.,1.));
#221=DIRECTION('',(1.,0.,0.));
#222=DIRECTION('',(0.,0.,1.));
#223=DIRECTION('',(1.,0.,0.));
#224=DIRECTION('',(0.,0.,1.));
#225=DIRECTION('',(1.,0.,0.));
#226=DIRECTION('',(0.,0.,1.));
#227=DIRECTION('',(1.,0.,0.));
#228=DIRECTION('',(0.,0.,1.));
#229=DIRECTION('',(1.,0.,0.));
#230=DIRECTION('',(0.,0.,1.));
#231=DIRECTION('',(1.,0.,0.));
#232=DIRECTION('',(0.,0.,1.));
#233=DIRECTION('',(1.,0.,0.));
#234=DIRECTION('',(0.,0.,1.));
#235=DIRECTION('',(1.,0.,0.));
#236=DIRECTION('',(0.,0.,1.));
#237=DIRECTION('',(1.,0.,0.));
#238=DIRECTION('',(0.,0.,1.));
#239=DIRECTION('',(1.,0.,3.16654548696396E-017));
#240=DIRECTION('',(0.,0.,-1.));
#241=DIRECTION('',(-1.,0.,0.));
#242=CARTESIAN_POINT('',(0.,0.,0.));
#243=CARTESIAN_POINT('',(0.,0.,0.));
#244=CARTESIAN_POINT('',(0.,0.,-51.));
#245=CARTESIAN_POINT('',(0.,0.,-191.));
#246=CARTESIAN_POINT('',(0.,0.,0.));
#247=CARTESIAN_POINT('',(0.,0.,0.));
#248=CARTESIAN_POINT('',(0.,0.,-51.));
#249=CARTESIAN_POINT('',(0.,0.,-191.));
#250=CARTESIAN_POINT('',(0.,0.,0.));
#251=CARTESIAN_POINT('',(8.5,0.,0.));
#252=CARTESIAN_POINT('',(0.,0.,0.));
#253=CARTESIAN_POINT('',(0.,0.,-1.));
#254=CARTESIAN_POINT('',(9.5,0.,-1.));
#255=CARTESIAN_POINT('',(0.,0.,0.));
#256=CARTESIAN_POINT('',(0.,0.,-156.));
#257=CARTESIAN_POINT('',(9.5,0.,-156.));
#258=CARTESIAN_POINT('',(0.,0.,-203.));
#259=CARTESIAN_POINT('',(0.,0.,-156.));
#260=CARTESIAN_POINT('',(16.05,0.,-156.));
#261=CARTESIAN_POINT('',(0.,-13.5,-156.));
#262=CARTESIAN_POINT('',(0.,0.,-183.));
#263=CARTESIAN_POINT('',(16.05,0.,-183.));
#264=CARTESIAN_POINT('',(0.,0.,-203.));
#265=CARTESIAN_POINT('',(0.,0.,-183.));
#266=CARTESIAN_POINT('',(20.,0.,-183.));
#267=CARTESIAN_POINT('',(0.,-16.05,-183.));
#268=CARTESIAN_POINT('',(0.,0.,-184.));
#269=CARTESIAN_POINT('',(21.,0.,-184.));
#270=CARTESIAN_POINT('',(0.,0.,-184.));
#271=CARTESIAN_POINT('',(0.,0.,-200.));
#272=CARTESIAN_POINT('',(21.,0.,-200.));
#273=CARTESIAN_POINT('',(0.,0.,-203.));
#274=CARTESIAN_POINT('',(0.,0.,-203.));
#275=CARTESIAN_POINT('',(15.8038475772934,0.,-203.));
#276=CARTESIAN_POINT('',(0.,0.,-200.));
#277=CARTESIAN_POINT('',(0.,-10.2045735194571,-203.));
#278=MECHANICAL_DESIGN_GEOMETRIC_PRESENTATION_REPRESENTATION('',(#145,#146,
#147,#148,#149,#150,#151,#152),#279);
#279=(
GEOMETRIC_REPRESENTATION_CONTEXT(3)
GLOBAL_UNCERTAINTY_ASSIGNED_CONTEXT((#280))
GLOBAL_UNIT_ASSIGNED_CONTEXT((#286,#282,#281))
REPRESENTATION_CONTEXT('1493026226816','TOP_LEVEL_ASSEMBLY_PART')
);
#280=UNCERTAINTY_MEASURE_WITH_UNIT(LENGTH_MEASURE(2.E-005),#286,
'DISTANCE_ACCURACY_VALUE','Maximum Tolerance applied to model');
#281=(
NAMED_UNIT(*)
SI_UNIT($,.STERADIAN.)
SOLID_ANGLE_UNIT()
);
#282=(
CONVERSION_BASED_UNIT('DEGREE',#284)
NAMED_UNIT(#283)
PLANE_ANGLE_UNIT()
);
#283=DIMENSIONAL_EXPONENTS(0.,0.,0.,0.,0.,0.,0.);
#284=PLANE_ANGLE_MEASURE_WITH_UNIT(PLANE_ANGLE_MEASURE(0.0174532925),#285);
#285=(
NAMED_UNIT(*)
PLANE_ANGLE_UNIT()
SI_UNIT($,.RADIAN.)
);
#286=(
LENGTH_UNIT()
NAMED_UNIT(*)
SI_UNIT(.MILLI.,.METRE.)
);
ENDSEC;
END-ISO-10303-21;
