ISO-10303-21;
HEADER;
/* Generated by software containing ST-Developer
 * from STEP Tools, Inc. (www.steptools.com) 
 */
/* OPTION: using custom schema-name function */

FILE_DESCRIPTION(
/* description */ (''),
/* implementation_level */ '2;1');

FILE_NAME(
/* name */ '1493026209892.stp',
/* time_stamp */ '2017-04-24T11:30:15+02:00',
/* author */ (''),
/* organization */ ('SMS'),
/* preprocessor_version */ 'ST-DEVELOPER v15',
/* originating_system */ 'SIEMENS PLM Software NX 8.5',
/* authorisation */ '');

FILE_SCHEMA (('AUTOMOTIVE_DESIGN { 1 0 10303 214 3 1 1 1 }'));
ENDSEC;

DATA;
#10=CONSTRUCTIVE_GEOMETRY_REPRESENTATION_RELATIONSHIP(
'supplemental geometry','',#26,#11);
#11=CONSTRUCTIVE_GEOMETRY_REPRESENTATION('supplemental geometry',(#149,
#150,#151,#152),#239);
#12=GEOMETRICALLY_BOUNDED_WIREFRAME_SHAPE_REPRESENTATION(
'A393.14-1916182-636200794240002353-1-None',(#27),#239);
#13=SHAPE_REPRESENTATION_RELATIONSHIP('None',
'relationship between A393.14-1916182-636200794240002353-1-None and A3
93.14-1916182-636200794240002353-1-None',#26,#15);
#14=SHAPE_REPRESENTATION_RELATIONSHIP('None',
'relationship between A393.14-1916182-636200794240002353-1-None and A3
93.14-1916182-636200794240002353-1-None',#26,#12);
#15=ADVANCED_BREP_SHAPE_REPRESENTATION(
'A393.14-1916182-636200794240002353-1-None',(#33),#239);
#16=SHAPE_DEFINITION_REPRESENTATION(#17,#26);
#17=PRODUCT_DEFINITION_SHAPE('','',#18);
#18=PRODUCT_DEFINITION(' ','',#20,#19);
#19=PRODUCT_DEFINITION_CONTEXT('part definition',#25,'design');
#20=PRODUCT_DEFINITION_FORMATION_WITH_SPECIFIED_SOURCE(' ',' ',#22,
 .NOT_KNOWN.);
#21=PRODUCT_RELATED_PRODUCT_CATEGORY('part','',(#22));
#22=PRODUCT('A393.14-1916182-636200794240002353-1',
'A393.14-1916182-636200794240002353-1',' ',(#23));
#23=PRODUCT_CONTEXT(' ',#25,'mechanical');
#24=APPLICATION_PROTOCOL_DEFINITION('international standard',
'automotive_design',2010,#25);
#25=APPLICATION_CONTEXT(
'core data for automotive mechanical design processes');
#26=SHAPE_REPRESENTATION('A393.14-1916182-636200794240002353-1-None',(#148),
#239);
#27=GEOMETRIC_CURVE_SET('None',(#209,#210,#211));
#28=SURFACE_STYLE_USAGE(.BOTH.,#29);
#29=SURFACE_SIDE_STYLE('',(#30));
#30=SURFACE_STYLE_FILL_AREA(#31);
#31=FILL_AREA_STYLE('',(#32));
#32=FILL_AREA_STYLE_COLOUR('',#147);
#33=MANIFOLD_SOLID_BREP('NOCUT',#34);
#34=CLOSED_SHELL('',(#42,#43,#44,#45,#46,#47,#48,#49));
#35=FACE_OUTER_BOUND('',#77,.T.);
#36=FACE_OUTER_BOUND('',#78,.T.);
#37=PLANE('',#161);
#38=PLANE('',#166);
#39=PLANE('',#167);
#40=CYLINDRICAL_SURFACE('',#157,11.);
#41=CYLINDRICAL_SURFACE('',#163,9.5);
#42=ADVANCED_FACE('',(#53,#54),#50,.T.);
#43=ADVANCED_FACE('',(#55,#56),#40,.T.);
#44=ADVANCED_FACE('',(#57,#58),#51,.T.);
#45=ADVANCED_FACE('',(#59,#60),#37,.F.);
#46=ADVANCED_FACE('',(#61,#62),#41,.T.);
#47=ADVANCED_FACE('',(#63,#64),#52,.T.);
#48=ADVANCED_FACE('',(#35),#38,.F.);
#49=ADVANCED_FACE('',(#36),#39,.F.);
#50=CONICAL_SURFACE('',#155,10.5,44.9999999999999);
#51=CONICAL_SURFACE('',#159,11.,44.9999999999998);
#52=CONICAL_SURFACE('',#165,9.5,44.9999999999999);
#53=FACE_BOUND('',#65,.T.);
#54=FACE_BOUND('',#66,.T.);
#55=FACE_BOUND('',#67,.T.);
#56=FACE_BOUND('',#68,.T.);
#57=FACE_BOUND('',#69,.T.);
#58=FACE_BOUND('',#70,.T.);
#59=FACE_BOUND('',#71,.T.);
#60=FACE_BOUND('',#72,.T.);
#61=FACE_BOUND('',#73,.T.);
#62=FACE_BOUND('',#74,.T.);
#63=FACE_BOUND('',#75,.T.);
#64=FACE_BOUND('',#76,.T.);
#65=EDGE_LOOP('',(#79));
#66=EDGE_LOOP('',(#80));
#67=EDGE_LOOP('',(#81));
#68=EDGE_LOOP('',(#82));
#69=EDGE_LOOP('',(#83));
#70=EDGE_LOOP('',(#84));
#71=EDGE_LOOP('',(#85));
#72=EDGE_LOOP('',(#86));
#73=EDGE_LOOP('',(#87));
#74=EDGE_LOOP('',(#88));
#75=EDGE_LOOP('',(#89));
#76=EDGE_LOOP('',(#90));
#77=EDGE_LOOP('',(#91));
#78=EDGE_LOOP('',(#92));
#79=ORIENTED_EDGE('',*,*,#100,.F.);
#80=ORIENTED_EDGE('',*,*,#101,.T.);
#81=ORIENTED_EDGE('',*,*,#102,.F.);
#82=ORIENTED_EDGE('',*,*,#100,.T.);
#83=ORIENTED_EDGE('',*,*,#103,.F.);
#84=ORIENTED_EDGE('',*,*,#102,.T.);
#85=ORIENTED_EDGE('',*,*,#104,.F.);
#86=ORIENTED_EDGE('',*,*,#103,.T.);
#87=ORIENTED_EDGE('',*,*,#105,.F.);
#88=ORIENTED_EDGE('',*,*,#104,.T.);
#89=ORIENTED_EDGE('',*,*,#106,.F.);
#90=ORIENTED_EDGE('',*,*,#105,.T.);
#91=ORIENTED_EDGE('',*,*,#106,.T.);
#92=ORIENTED_EDGE('',*,*,#101,.F.);
#93=VERTEX_POINT('',#217);
#94=VERTEX_POINT('',#219);
#95=VERTEX_POINT('',#222);
#96=VERTEX_POINT('',#225);
#97=VERTEX_POINT('',#228);
#98=VERTEX_POINT('',#231);
#99=VERTEX_POINT('',#234);
#100=EDGE_CURVE('',#93,#93,#107,.T.);
#101=EDGE_CURVE('',#94,#94,#108,.T.);
#102=EDGE_CURVE('',#95,#95,#109,.T.);
#103=EDGE_CURVE('',#96,#96,#110,.T.);
#104=EDGE_CURVE('',#97,#97,#111,.T.);
#105=EDGE_CURVE('',#98,#98,#112,.T.);
#106=EDGE_CURVE('',#99,#99,#113,.T.);
#107=CIRCLE('',#153,11.);
#108=CIRCLE('',#154,10.5);
#109=CIRCLE('',#156,11.);
#110=CIRCLE('',#158,10.5);
#111=CIRCLE('',#160,9.5);
#112=CIRCLE('',#162,9.5);
#113=CIRCLE('',#164,9.);
#114=CURVE_STYLE('',#118,POSITIVE_LENGTH_MEASURE(0.13),#145);
#115=CURVE_STYLE('',#119,POSITIVE_LENGTH_MEASURE(0.18),#145);
#116=CURVE_STYLE('',#120,POSITIVE_LENGTH_MEASURE(0.18),#145);
#117=CURVE_STYLE('',#121,POSITIVE_LENGTH_MEASURE(0.18),#146);
#118=DRAUGHTING_PRE_DEFINED_CURVE_FONT('continuous');
#119=DRAUGHTING_PRE_DEFINED_CURVE_FONT('continuous');
#120=DRAUGHTING_PRE_DEFINED_CURVE_FONT('continuous');
#121=DRAUGHTING_PRE_DEFINED_CURVE_FONT('continuous');
#122=PRESENTATION_LAYER_ASSIGNMENT('1','Layer 1',(#209,#210,#211,#149,#150,
#151,#152,#33));
#123=STYLED_ITEM('',(#131),#209);
#124=STYLED_ITEM('',(#132),#210);
#125=STYLED_ITEM('',(#133),#211);
#126=STYLED_ITEM('',(#134),#149);
#127=STYLED_ITEM('',(#135),#150);
#128=STYLED_ITEM('',(#136),#151);
#129=STYLED_ITEM('',(#137),#152);
#130=STYLED_ITEM('',(#138),#33);
#131=PRESENTATION_STYLE_ASSIGNMENT((#139));
#132=PRESENTATION_STYLE_ASSIGNMENT((#140));
#133=PRESENTATION_STYLE_ASSIGNMENT((#141));
#134=PRESENTATION_STYLE_ASSIGNMENT((#114));
#135=PRESENTATION_STYLE_ASSIGNMENT((#115));
#136=PRESENTATION_STYLE_ASSIGNMENT((#116));
#137=PRESENTATION_STYLE_ASSIGNMENT((#117));
#138=PRESENTATION_STYLE_ASSIGNMENT((#28));
#139=POINT_STYLE('',#142,POSITIVE_LENGTH_MEASURE(3.),#145);
#140=POINT_STYLE('',#143,POSITIVE_LENGTH_MEASURE(3.),#145);
#141=POINT_STYLE('',#144,POSITIVE_LENGTH_MEASURE(3.),#146);
#142=PRE_DEFINED_POINT_MARKER_SYMBOL('plus');
#143=PRE_DEFINED_POINT_MARKER_SYMBOL('plus');
#144=PRE_DEFINED_POINT_MARKER_SYMBOL('plus');
#145=COLOUR_RGB('Strong Stone',0.576470588235294,0.54508278019379,0.392156862745098);
#146=COLOUR_RGB('Medium Maroon',0.6,0.4,0.4);
#147=COLOUR_RGB('TLS_NOCUT',0.499992370489052,0.499992370489052,0.499992370489052);
#148=AXIS2_PLACEMENT_3D('',#208,#168,#169);
#149=AXIS2_PLACEMENT_3D('',#212,#170,#171);
#150=AXIS2_PLACEMENT_3D('PCS',#213,#172,#173);
#151=AXIS2_PLACEMENT_3D('MCS',#214,#174,#175);
#152=AXIS2_PLACEMENT_3D('CSW',#215,#176,#177);
#153=AXIS2_PLACEMENT_3D('',#216,#178,#179);
#154=AXIS2_PLACEMENT_3D('',#218,#180,#181);
#155=AXIS2_PLACEMENT_3D('',#220,#182,#183);
#156=AXIS2_PLACEMENT_3D('',#221,#184,#185);
#157=AXIS2_PLACEMENT_3D('',#223,#186,#187);
#158=AXIS2_PLACEMENT_3D('',#224,#188,#189);
#159=AXIS2_PLACEMENT_3D('',#226,#190,#191);
#160=AXIS2_PLACEMENT_3D('',#227,#192,#193);
#161=AXIS2_PLACEMENT_3D('',#229,#194,#195);
#162=AXIS2_PLACEMENT_3D('',#230,#196,#197);
#163=AXIS2_PLACEMENT_3D('',#232,#198,#199);
#164=AXIS2_PLACEMENT_3D('',#233,#200,#201);
#165=AXIS2_PLACEMENT_3D('',#235,#202,#203);
#166=AXIS2_PLACEMENT_3D('',#236,#204,#205);
#167=AXIS2_PLACEMENT_3D('',#237,#206,#207);
#168=DIRECTION('',(0.,0.,1.));
#169=DIRECTION('',(1.,0.,0.));
#170=DIRECTION('',(0.,0.,1.));
#171=DIRECTION('',(1.,0.,0.));
#172=DIRECTION('',(0.,0.,1.));
#173=DIRECTION('',(1.,0.,0.));
#174=DIRECTION('',(0.,0.,1.));
#175=DIRECTION('',(1.,0.,0.));
#176=DIRECTION('',(0.,0.,1.));
#177=DIRECTION('',(1.,0.,0.));
#178=DIRECTION('',(0.,0.,1.));
#179=DIRECTION('',(1.,0.,0.));
#180=DIRECTION('',(0.,0.,1.));
#181=DIRECTION('',(1.,0.,0.));
#182=DIRECTION('',(0.,0.,1.));
#183=DIRECTION('',(1.,0.,0.));
#184=DIRECTION('',(0.,0.,1.));
#185=DIRECTION('',(1.,0.,0.));
#186=DIRECTION('',(0.,0.,1.));
#187=DIRECTION('',(1.,0.,0.));
#188=DIRECTION('',(0.,0.,1.));
#189=DIRECTION('',(1.,0.,0.));
#190=DIRECTION('',(0.,0.,-1.));
#191=DIRECTION('',(-1.,0.,2.74535861677835E-017));
#192=DIRECTION('',(0.,0.,1.));
#193=DIRECTION('',(1.,0.,0.));
#194=DIRECTION('',(0.,0.,-1.));
#195=DIRECTION('',(-1.,0.,0.));
#196=DIRECTION('',(0.,0.,1.));
#197=DIRECTION('',(1.,0.,0.));
#198=DIRECTION('',(0.,0.,1.));
#199=DIRECTION('',(1.,0.,0.));
#200=DIRECTION('',(0.,0.,1.));
#201=DIRECTION('',(1.,0.,0.));
#202=DIRECTION('',(0.,0.,-1.));
#203=DIRECTION('',(-1.,0.,5.45591583578641E-017));
#204=DIRECTION('',(0.,0.,-1.));
#205=DIRECTION('',(-1.,0.,0.));
#206=DIRECTION('',(0.,0.,1.));
#207=DIRECTION('',(1.,0.,0.));
#208=CARTESIAN_POINT('',(0.,0.,0.));
#209=CARTESIAN_POINT('',(0.,0.,0.));
#210=CARTESIAN_POINT('',(0.,0.,-51.));
#211=CARTESIAN_POINT('',(0.,0.,-170.));
#212=CARTESIAN_POINT('',(0.,0.,0.));
#213=CARTESIAN_POINT('',(0.,0.,0.));
#214=CARTESIAN_POINT('',(0.,0.,-51.));
#215=CARTESIAN_POINT('',(0.,0.,-170.));
#216=CARTESIAN_POINT('',(0.,0.,-181.));
#217=CARTESIAN_POINT('',(11.,0.,-181.));
#218=CARTESIAN_POINT('',(0.,0.,-181.5));
#219=CARTESIAN_POINT('',(10.5,0.,-181.5));
#220=CARTESIAN_POINT('',(0.,0.,-181.5));
#221=CARTESIAN_POINT('',(0.,0.,-163.6));
#222=CARTESIAN_POINT('',(11.,0.,-163.6));
#223=CARTESIAN_POINT('',(0.,0.,-181.5));
#224=CARTESIAN_POINT('',(0.,0.,-163.1));
#225=CARTESIAN_POINT('',(10.5,0.,-163.1));
#226=CARTESIAN_POINT('',(0.,0.,-163.6));
#227=CARTESIAN_POINT('',(0.,0.,-163.1));
#228=CARTESIAN_POINT('',(9.5,0.,-163.1));
#229=CARTESIAN_POINT('',(0.,-10.5,-163.1));
#230=CARTESIAN_POINT('',(0.,0.,-0.5));
#231=CARTESIAN_POINT('',(9.5,0.,-0.5));
#232=CARTESIAN_POINT('',(0.,0.,-181.5));
#233=CARTESIAN_POINT('',(0.,0.,0.));
#234=CARTESIAN_POINT('',(9.,0.,0.));
#235=CARTESIAN_POINT('',(0.,0.,-0.5));
#236=CARTESIAN_POINT('',(0.,-9.,0.));
#237=CARTESIAN_POINT('',(0.,-6.4,-181.5));
#238=MECHANICAL_DESIGN_GEOMETRIC_PRESENTATION_REPRESENTATION('',(#123,#124,
#125,#126,#127,#128,#129,#130),#239);
#239=(
GEOMETRIC_REPRESENTATION_CONTEXT(3)
GLOBAL_UNCERTAINTY_ASSIGNED_CONTEXT((#240))
GLOBAL_UNIT_ASSIGNED_CONTEXT((#246,#242,#241))
REPRESENTATION_CONTEXT('1493026209892','TOP_LEVEL_ASSEMBLY_PART')
);
#240=UNCERTAINTY_MEASURE_WITH_UNIT(LENGTH_MEASURE(2.E-005),#246,
'DISTANCE_ACCURACY_VALUE','Maximum Tolerance applied to model');
#241=(
NAMED_UNIT(*)
SI_UNIT($,.STERADIAN.)
SOLID_ANGLE_UNIT()
);
#242=(
CONVERSION_BASED_UNIT('DEGREE',#244)
NAMED_UNIT(#243)
PLANE_ANGLE_UNIT()
);
#243=DIMENSIONAL_EXPONENTS(0.,0.,0.,0.,0.,0.,0.);
#244=PLANE_ANGLE_MEASURE_WITH_UNIT(PLANE_ANGLE_MEASURE(0.0174532925),#245);
#245=(
NAMED_UNIT(*)
PLANE_ANGLE_UNIT()
SI_UNIT($,.RADIAN.)
);
#246=(
LENGTH_UNIT()
NAMED_UNIT(*)
SI_UNIT(.MILLI.,.METRE.)
);
ENDSEC;
END-ISO-10303-21;
