ISO-10303-21;
HEADER;
/* Generated by software containing ST-Developer
 * from STEP Tools, Inc. (www.steptools.com) 
 */
/* OPTION: using custom schema-name function */

FILE_DESCRIPTION(
/* description */ (''),
/* implementation_level */ '2;1');

FILE_NAME(
/* name */ '1493026204633.stp',
/* time_stamp */ '2017-04-24T11:30:07+02:00',
/* author */ (''),
/* organization */ ('SMS'),
/* preprocessor_version */ 'ST-DEVELOPER v15',
/* originating_system */ 'SIEMENS PLM Software NX 8.5',
/* authorisation */ '');

FILE_SCHEMA (('AUTOMOTIVE_DESIGN { 1 0 10303 214 3 1 1 1 }'));
ENDSEC;

DATA;
#10=CONSTRUCTIVE_GEOMETRY_REPRESENTATION_RELATIONSHIP(
'supplemental geometry','',#26,#11);
#11=CONSTRUCTIVE_GEOMETRY_REPRESENTATION('supplemental geometry',(#193,
#194,#195,#196),#319);
#12=GEOMETRICALLY_BOUNDED_WIREFRAME_SHAPE_REPRESENTATION(
'A393.14-1316182-636200794226877437-1-None',(#27),#319);
#13=SHAPE_REPRESENTATION_RELATIONSHIP('None',
'relationship between A393.14-1316182-636200794226877437-1-None and A3
93.14-1316182-636200794226877437-1-None',#26,#15);
#14=SHAPE_REPRESENTATION_RELATIONSHIP('None',
'relationship between A393.14-1316182-636200794226877437-1-None and A3
93.14-1316182-636200794226877437-1-None',#26,#12);
#15=ADVANCED_BREP_SHAPE_REPRESENTATION(
'A393.14-1316182-636200794226877437-1-None',(#33),#319);
#16=SHAPE_DEFINITION_REPRESENTATION(#17,#26);
#17=PRODUCT_DEFINITION_SHAPE('','',#18);
#18=PRODUCT_DEFINITION(' ','',#20,#19);
#19=PRODUCT_DEFINITION_CONTEXT('part definition',#25,'design');
#20=PRODUCT_DEFINITION_FORMATION_WITH_SPECIFIED_SOURCE(' ',' ',#22,
 .NOT_KNOWN.);
#21=PRODUCT_RELATED_PRODUCT_CATEGORY('part','',(#22));
#22=PRODUCT('A393.14-1316182-636200794226877437-1',
'A393.14-1316182-636200794226877437-1',' ',(#23));
#23=PRODUCT_CONTEXT(' ',#25,'mechanical');
#24=APPLICATION_PROTOCOL_DEFINITION('international standard',
'automotive_design',2010,#25);
#25=APPLICATION_CONTEXT(
'core data for automotive mechanical design processes');
#26=SHAPE_REPRESENTATION('A393.14-1316182-636200794226877437-1-None',(#192),
#319);
#27=GEOMETRIC_CURVE_SET('None',(#277,#278,#279));
#28=SURFACE_STYLE_USAGE(.BOTH.,#29);
#29=SURFACE_SIDE_STYLE('',(#30));
#30=SURFACE_STYLE_FILL_AREA(#31);
#31=FILL_AREA_STYLE('',(#32));
#32=FILL_AREA_STYLE_COLOUR('',#191);
#33=MANIFOLD_SOLID_BREP('NOCUT',#34);
#34=CLOSED_SHELL('',(#62,#63,#64,#65,#66,#67,#68,#69,#70,#71,#72,#73));
#35=CYLINDRICAL_SURFACE('',#204,11.);
#36=CYLINDRICAL_SURFACE('',#210,9.5);
#37=CYLINDRICAL_SURFACE('',#214,8.5);
#38=CYLINDRICAL_SURFACE('',#218,6.35);
#39=CONICAL_SURFACE('',#202,10.5,45.0000000000001);
#40=CONICAL_SURFACE('',#206,11.,44.9999999999998);
#41=CONICAL_SURFACE('',#219,6.35,45.0000000000002);
#42=FACE_BOUND('',#83,.T.);
#43=FACE_BOUND('',#84,.T.);
#44=FACE_BOUND('',#85,.T.);
#45=FACE_BOUND('',#86,.T.);
#46=FACE_BOUND('',#87,.T.);
#47=FACE_BOUND('',#88,.T.);
#48=FACE_BOUND('',#89,.T.);
#49=FACE_BOUND('',#90,.T.);
#50=FACE_BOUND('',#91,.T.);
#51=FACE_BOUND('',#92,.T.);
#52=FACE_BOUND('',#93,.T.);
#53=FACE_BOUND('',#94,.T.);
#54=FACE_BOUND('',#95,.T.);
#55=FACE_BOUND('',#96,.T.);
#56=FACE_BOUND('',#97,.T.);
#57=FACE_BOUND('',#98,.T.);
#58=FACE_BOUND('',#99,.T.);
#59=FACE_BOUND('',#100,.T.);
#60=FACE_BOUND('',#101,.T.);
#61=FACE_BOUND('',#102,.T.);
#62=ADVANCED_FACE('',(#79),#74,.F.);
#63=ADVANCED_FACE('',(#80),#75,.F.);
#64=ADVANCED_FACE('',(#42,#43),#39,.T.);
#65=ADVANCED_FACE('',(#44,#45),#35,.T.);
#66=ADVANCED_FACE('',(#46,#47),#40,.T.);
#67=ADVANCED_FACE('',(#48,#49),#76,.F.);
#68=ADVANCED_FACE('',(#50,#51),#36,.T.);
#69=ADVANCED_FACE('',(#52,#53),#77,.F.);
#70=ADVANCED_FACE('',(#54,#55),#37,.T.);
#71=ADVANCED_FACE('',(#56,#57),#78,.F.);
#72=ADVANCED_FACE('',(#58,#59),#38,.T.);
#73=ADVANCED_FACE('',(#60,#61),#41,.T.);
#74=PLANE('',#198);
#75=PLANE('',#200);
#76=PLANE('',#208);
#77=PLANE('',#212);
#78=PLANE('',#216);
#79=FACE_OUTER_BOUND('',#81,.T.);
#80=FACE_OUTER_BOUND('',#82,.T.);
#81=EDGE_LOOP('',(#103));
#82=EDGE_LOOP('',(#104));
#83=EDGE_LOOP('',(#105));
#84=EDGE_LOOP('',(#106));
#85=EDGE_LOOP('',(#107));
#86=EDGE_LOOP('',(#108));
#87=EDGE_LOOP('',(#109));
#88=EDGE_LOOP('',(#110));
#89=EDGE_LOOP('',(#111));
#90=EDGE_LOOP('',(#112));
#91=EDGE_LOOP('',(#113));
#92=EDGE_LOOP('',(#114));
#93=EDGE_LOOP('',(#115));
#94=EDGE_LOOP('',(#116));
#95=EDGE_LOOP('',(#117));
#96=EDGE_LOOP('',(#118));
#97=EDGE_LOOP('',(#119));
#98=EDGE_LOOP('',(#120));
#99=EDGE_LOOP('',(#121));
#100=EDGE_LOOP('',(#122));
#101=EDGE_LOOP('',(#123));
#102=EDGE_LOOP('',(#124));
#103=ORIENTED_EDGE('',*,*,#136,.T.);
#104=ORIENTED_EDGE('',*,*,#137,.F.);
#105=ORIENTED_EDGE('',*,*,#138,.F.);
#106=ORIENTED_EDGE('',*,*,#137,.T.);
#107=ORIENTED_EDGE('',*,*,#139,.F.);
#108=ORIENTED_EDGE('',*,*,#138,.T.);
#109=ORIENTED_EDGE('',*,*,#140,.F.);
#110=ORIENTED_EDGE('',*,*,#139,.T.);
#111=ORIENTED_EDGE('',*,*,#141,.F.);
#112=ORIENTED_EDGE('',*,*,#140,.T.);
#113=ORIENTED_EDGE('',*,*,#142,.F.);
#114=ORIENTED_EDGE('',*,*,#141,.T.);
#115=ORIENTED_EDGE('',*,*,#143,.F.);
#116=ORIENTED_EDGE('',*,*,#142,.T.);
#117=ORIENTED_EDGE('',*,*,#144,.F.);
#118=ORIENTED_EDGE('',*,*,#143,.T.);
#119=ORIENTED_EDGE('',*,*,#145,.F.);
#120=ORIENTED_EDGE('',*,*,#144,.T.);
#121=ORIENTED_EDGE('',*,*,#146,.F.);
#122=ORIENTED_EDGE('',*,*,#145,.T.);
#123=ORIENTED_EDGE('',*,*,#136,.F.);
#124=ORIENTED_EDGE('',*,*,#146,.T.);
#125=VERTEX_POINT('',#285);
#126=VERTEX_POINT('',#288);
#127=VERTEX_POINT('',#291);
#128=VERTEX_POINT('',#294);
#129=VERTEX_POINT('',#297);
#130=VERTEX_POINT('',#300);
#131=VERTEX_POINT('',#303);
#132=VERTEX_POINT('',#306);
#133=VERTEX_POINT('',#309);
#134=VERTEX_POINT('',#312);
#135=VERTEX_POINT('',#315);
#136=EDGE_CURVE('',#125,#125,#147,.T.);
#137=EDGE_CURVE('',#126,#126,#148,.T.);
#138=EDGE_CURVE('',#127,#127,#149,.T.);
#139=EDGE_CURVE('',#128,#128,#150,.T.);
#140=EDGE_CURVE('',#129,#129,#151,.T.);
#141=EDGE_CURVE('',#130,#130,#152,.T.);
#142=EDGE_CURVE('',#131,#131,#153,.T.);
#143=EDGE_CURVE('',#132,#132,#154,.T.);
#144=EDGE_CURVE('',#133,#133,#155,.T.);
#145=EDGE_CURVE('',#134,#134,#156,.T.);
#146=EDGE_CURVE('',#135,#135,#157,.T.);
#147=CIRCLE('',#197,5.85);
#148=CIRCLE('',#199,10.5);
#149=CIRCLE('',#201,11.);
#150=CIRCLE('',#203,11.);
#151=CIRCLE('',#205,10.5);
#152=CIRCLE('',#207,9.5);
#153=CIRCLE('',#209,9.5);
#154=CIRCLE('',#211,8.5);
#155=CIRCLE('',#213,8.5);
#156=CIRCLE('',#215,6.35);
#157=CIRCLE('',#217,6.35);
#158=CURVE_STYLE('',#162,POSITIVE_LENGTH_MEASURE(0.13),#189);
#159=CURVE_STYLE('',#163,POSITIVE_LENGTH_MEASURE(0.18),#189);
#160=CURVE_STYLE('',#164,POSITIVE_LENGTH_MEASURE(0.18),#189);
#161=CURVE_STYLE('',#165,POSITIVE_LENGTH_MEASURE(0.18),#190);
#162=DRAUGHTING_PRE_DEFINED_CURVE_FONT('continuous');
#163=DRAUGHTING_PRE_DEFINED_CURVE_FONT('continuous');
#164=DRAUGHTING_PRE_DEFINED_CURVE_FONT('continuous');
#165=DRAUGHTING_PRE_DEFINED_CURVE_FONT('continuous');
#166=PRESENTATION_LAYER_ASSIGNMENT('1','Layer 1',(#277,#278,#279,#193,#194,
#195,#196,#33));
#167=STYLED_ITEM('',(#175),#277);
#168=STYLED_ITEM('',(#176),#278);
#169=STYLED_ITEM('',(#177),#279);
#170=STYLED_ITEM('',(#178),#193);
#171=STYLED_ITEM('',(#179),#194);
#172=STYLED_ITEM('',(#180),#195);
#173=STYLED_ITEM('',(#181),#196);
#174=STYLED_ITEM('',(#182),#33);
#175=PRESENTATION_STYLE_ASSIGNMENT((#183));
#176=PRESENTATION_STYLE_ASSIGNMENT((#184));
#177=PRESENTATION_STYLE_ASSIGNMENT((#185));
#178=PRESENTATION_STYLE_ASSIGNMENT((#158));
#179=PRESENTATION_STYLE_ASSIGNMENT((#159));
#180=PRESENTATION_STYLE_ASSIGNMENT((#160));
#181=PRESENTATION_STYLE_ASSIGNMENT((#161));
#182=PRESENTATION_STYLE_ASSIGNMENT((#28));
#183=POINT_STYLE('',#186,POSITIVE_LENGTH_MEASURE(3.),#189);
#184=POINT_STYLE('',#187,POSITIVE_LENGTH_MEASURE(3.),#189);
#185=POINT_STYLE('',#188,POSITIVE_LENGTH_MEASURE(3.),#190);
#186=PRE_DEFINED_POINT_MARKER_SYMBOL('plus');
#187=PRE_DEFINED_POINT_MARKER_SYMBOL('plus');
#188=PRE_DEFINED_POINT_MARKER_SYMBOL('plus');
#189=COLOUR_RGB('Strong Stone',0.576470588235294,0.54508278019379,0.392156862745098);
#190=COLOUR_RGB('Medium Maroon',0.6,0.4,0.4);
#191=COLOUR_RGB('TLS_NOCUT',0.499992370489052,0.499992370489052,0.499992370489052);
#192=AXIS2_PLACEMENT_3D('',#276,#220,#221);
#193=AXIS2_PLACEMENT_3D('',#280,#222,#223);
#194=AXIS2_PLACEMENT_3D('PCS',#281,#224,#225);
#195=AXIS2_PLACEMENT_3D('MCS',#282,#226,#227);
#196=AXIS2_PLACEMENT_3D('CSW',#283,#228,#229);
#197=AXIS2_PLACEMENT_3D('',#284,#230,#231);
#198=AXIS2_PLACEMENT_3D('',#286,#232,#233);
#199=AXIS2_PLACEMENT_3D('',#287,#234,#235);
#200=AXIS2_PLACEMENT_3D('',#289,#236,#237);
#201=AXIS2_PLACEMENT_3D('',#290,#238,#239);
#202=AXIS2_PLACEMENT_3D('',#292,#240,#241);
#203=AXIS2_PLACEMENT_3D('',#293,#242,#243);
#204=AXIS2_PLACEMENT_3D('',#295,#244,#245);
#205=AXIS2_PLACEMENT_3D('',#296,#246,#247);
#206=AXIS2_PLACEMENT_3D('',#298,#248,#249);
#207=AXIS2_PLACEMENT_3D('',#299,#250,#251);
#208=AXIS2_PLACEMENT_3D('',#301,#252,#253);
#209=AXIS2_PLACEMENT_3D('',#302,#254,#255);
#210=AXIS2_PLACEMENT_3D('',#304,#256,#257);
#211=AXIS2_PLACEMENT_3D('',#305,#258,#259);
#212=AXIS2_PLACEMENT_3D('',#307,#260,#261);
#213=AXIS2_PLACEMENT_3D('',#308,#262,#263);
#214=AXIS2_PLACEMENT_3D('',#310,#264,#265);
#215=AXIS2_PLACEMENT_3D('',#311,#266,#267);
#216=AXIS2_PLACEMENT_3D('',#313,#268,#269);
#217=AXIS2_PLACEMENT_3D('',#314,#270,#271);
#218=AXIS2_PLACEMENT_3D('',#316,#272,#273);
#219=AXIS2_PLACEMENT_3D('',#317,#274,#275);
#220=DIRECTION('',(0.,0.,1.));
#221=DIRECTION('',(1.,0.,0.));
#222=DIRECTION('',(0.,0.,1.));
#223=DIRECTION('',(1.,0.,0.));
#224=DIRECTION('',(0.,0.,1.));
#225=DIRECTION('',(1.,0.,0.));
#226=DIRECTION('',(0.,0.,1.));
#227=DIRECTION('',(1.,0.,0.));
#228=DIRECTION('',(0.,0.,1.));
#229=DIRECTION('',(1.,0.,0.));
#230=DIRECTION('',(0.,-5.01795717344704E-018,1.));
#231=DIRECTION('',(0.,-1.,-5.01795717344719E-018));
#232=DIRECTION('',(0.,5.01795717344704E-018,-1.));
#233=DIRECTION('',(0.,1.,5.01795717344704E-018));
#234=DIRECTION('',(0.,-5.01795717344704E-018,1.));
#235=DIRECTION('',(0.,-1.,0.));
#236=DIRECTION('',(0.,-5.01795717344704E-018,1.));
#237=DIRECTION('',(0.,-1.,0.));
#238=DIRECTION('',(0.,-5.01795717344704E-018,1.));
#239=DIRECTION('',(0.,-1.,0.));
#240=DIRECTION('',(0.,-5.01795717344704E-018,1.));
#241=DIRECTION('',(0.,-1.,-5.49343406543866E-017));
#242=DIRECTION('',(0.,-5.01795717344704E-018,1.));
#243=DIRECTION('',(0.,-1.,0.));
#244=DIRECTION('',(0.,-5.01795717344704E-018,1.));
#245=DIRECTION('',(0.,-1.,0.));
#246=DIRECTION('',(0.,-5.01795717344704E-018,1.));
#247=DIRECTION('',(0.,-1.,0.));
#248=DIRECTION('',(0.,5.01795717344704E-018,-1.));
#249=DIRECTION('',(0.,1.,-2.74535861677835E-017));
#250=DIRECTION('',(0.,-5.01795717344704E-018,1.));
#251=DIRECTION('',(0.,-1.,0.));
#252=DIRECTION('',(0.,5.01795717344704E-018,-1.));
#253=DIRECTION('',(0.,1.,0.));
#254=DIRECTION('',(0.,-5.01795717344704E-018,1.));
#255=DIRECTION('',(0.,-1.,0.));
#256=DIRECTION('',(0.,-5.01795717344704E-018,1.));
#257=DIRECTION('',(0.,-1.,0.));
#258=DIRECTION('',(0.,-5.01795717344704E-018,1.));
#259=DIRECTION('',(0.,-1.,0.));
#260=DIRECTION('',(0.,5.01795717344704E-018,-1.));
#261=DIRECTION('',(0.,1.,0.));
#262=DIRECTION('',(0.,-5.01795717344704E-018,1.));
#263=DIRECTION('',(0.,-1.,0.));
#264=DIRECTION('',(0.,-5.01795717344704E-018,1.));
#265=DIRECTION('',(0.,-1.,0.));
#266=DIRECTION('',(0.,-5.01795717344704E-018,1.));
#267=DIRECTION('',(0.,-1.,0.));
#268=DIRECTION('',(0.,5.01795717344704E-018,-1.));
#269=DIRECTION('',(0.,1.,0.));
#270=DIRECTION('',(0.,-5.01795717344704E-018,1.));
#271=DIRECTION('',(0.,-1.,0.));
#272=DIRECTION('',(0.,-5.01795717344704E-018,1.));
#273=DIRECTION('',(0.,-1.,0.));
#274=DIRECTION('',(0.,5.01795717344704E-018,-1.));
#275=DIRECTION('',(0.,1.,3.49064941506733E-017));
#276=CARTESIAN_POINT('',(0.,0.,0.));
#277=CARTESIAN_POINT('',(0.,0.,0.));
#278=CARTESIAN_POINT('',(0.,0.,-46.));
#279=CARTESIAN_POINT('',(0.,0.,-165.5));
#280=CARTESIAN_POINT('',(0.,0.,0.));
#281=CARTESIAN_POINT('',(0.,0.,0.));
#282=CARTESIAN_POINT('',(0.,0.,-46.));
#283=CARTESIAN_POINT('',(0.,0.,-165.5));
#284=CARTESIAN_POINT('',(0.,8.88178419700125E-016,2.08166817117217E-014));
#285=CARTESIAN_POINT('',(0.,-5.85,2.08166817117217E-014));
#286=CARTESIAN_POINT('',(0.,5.85,2.08166817117217E-014));
#287=CARTESIAN_POINT('',(0.,1.77635683940025E-015,-177.));
#288=CARTESIAN_POINT('',(0.,-10.5,-177.));
#289=CARTESIAN_POINT('',(0.,6.4,-177.));
#290=CARTESIAN_POINT('',(0.,1.77384786081353E-015,-176.5));
#291=CARTESIAN_POINT('',(0.,-11.,-176.5));
#292=CARTESIAN_POINT('',(0.,1.77635683940025E-015,-177.));
#293=CARTESIAN_POINT('',(0.,1.68653540599555E-015,-159.1));
#294=CARTESIAN_POINT('',(0.,-11.,-159.1));
#295=CARTESIAN_POINT('',(0.,1.77635683940025E-015,-177.));
#296=CARTESIAN_POINT('',(0.,1.68402642740883E-015,-158.6));
#297=CARTESIAN_POINT('',(0.,-10.5,-158.6));
#298=CARTESIAN_POINT('',(0.,1.68653540599555E-015,-159.1));
#299=CARTESIAN_POINT('',(0.,1.68402642740883E-015,-158.6));
#300=CARTESIAN_POINT('',(0.,-9.5,-158.6));
#301=CARTESIAN_POINT('',(0.,10.5,-158.6));
#302=CARTESIAN_POINT('',(0.,1.62080016702339E-015,-146.));
#303=CARTESIAN_POINT('',(0.,-9.5,-146.));
#304=CARTESIAN_POINT('',(0.,1.77635683940025E-015,-177.));
#305=CARTESIAN_POINT('',(0.,1.62080016702339E-015,-146.));
#306=CARTESIAN_POINT('',(0.,-8.5,-146.));
#307=CARTESIAN_POINT('',(0.,9.5,-146.));
#308=CARTESIAN_POINT('',(0.,1.59069242398271E-015,-140.));
#309=CARTESIAN_POINT('',(0.,-8.5,-140.));
#310=CARTESIAN_POINT('',(0.,1.77635683940025E-015,-177.));
#311=CARTESIAN_POINT('',(0.,1.59069242398271E-015,-140.));
#312=CARTESIAN_POINT('',(0.,-6.35,-140.));
#313=CARTESIAN_POINT('',(0.,8.5,-140.));
#314=CARTESIAN_POINT('',(0.,8.90687398286849E-016,-0.49999999999998));
#315=CARTESIAN_POINT('',(0.,-6.35,-0.49999999999998));
#316=CARTESIAN_POINT('',(0.,1.77635683940025E-015,-177.));
#317=CARTESIAN_POINT('',(0.,8.90687398286849E-016,-0.49999999999998));
#318=MECHANICAL_DESIGN_GEOMETRIC_PRESENTATION_REPRESENTATION('',(#167,#168,
#169,#170,#171,#172,#173,#174),#319);
#319=(
GEOMETRIC_REPRESENTATION_CONTEXT(3)
GLOBAL_UNCERTAINTY_ASSIGNED_CONTEXT((#320))
GLOBAL_UNIT_ASSIGNED_CONTEXT((#326,#322,#321))
REPRESENTATION_CONTEXT('1493026204633','TOP_LEVEL_ASSEMBLY_PART')
);
#320=UNCERTAINTY_MEASURE_WITH_UNIT(LENGTH_MEASURE(2.E-005),#326,
'DISTANCE_ACCURACY_VALUE','Maximum Tolerance applied to model');
#321=(
NAMED_UNIT(*)
SI_UNIT($,.STERADIAN.)
SOLID_ANGLE_UNIT()
);
#322=(
CONVERSION_BASED_UNIT('DEGREE',#324)
NAMED_UNIT(#323)
PLANE_ANGLE_UNIT()
);
#323=DIMENSIONAL_EXPONENTS(0.,0.,0.,0.,0.,0.,0.);
#324=PLANE_ANGLE_MEASURE_WITH_UNIT(PLANE_ANGLE_MEASURE(0.0174532925),#325);
#325=(
NAMED_UNIT(*)
PLANE_ANGLE_UNIT()
SI_UNIT($,.RADIAN.)
);
#326=(
LENGTH_UNIT()
NAMED_UNIT(*)
SI_UNIT(.MILLI.,.METRE.)
);
ENDSEC;
END-ISO-10303-21;
