ISO-10303-21;
HEADER;
FILE_DESCRIPTION(
/* description */ ('3-D model version:1'),
/* implementation_level */ '2;1');
FILE_NAME(
/* name */ 'A392.54523-4025100',
/* time_stamp */ '2016-12-02T13:59:13',
/* author */ ('InteractiveCad'),
/* organization */ ('AB Sandvik Coromant'),
/* preprocessor_version */ 'ST-DEVELOPER v11',
/* originating_system */ 'SIEMENS UGS NX 6.0',
/* authorization */ '');
FILE_SCHEMA(('AUTOMOTIVE_DESIGN'));
ENDSEC;
DATA;
#10=SHAPE_REPRESENTATION_RELATIONSHIP('None','relationship between A392.54523_4025100uu_stp-None and A392.54523_4025\X\0D100uu_stp-None',
     #22,#11);
#11=ADVANCED_BREP_SHAPE_REPRESENTATION('A392.54523_4025100uu_stp-None',(#32),#385);
#12=SHAPE_DEFINITION_REPRESENTATION(#13,#22);
#13=PRODUCT_DEFINITION_SHAPE('','',#14);
#14=PRODUCT_DEFINITION(' ','',#16,#15);
#15=PRODUCT_DEFINITION_CONTEXT('part definition',#21,'design');
#16=PRODUCT_DEFINITION_FORMATION_WITH_SPECIFIED_SOURCE(' ',' ',#18,.NOT_KNOWN.);
#17=PRODUCT_RELATED_PRODUCT_CATEGORY('part','',(#18));
#18=PRODUCT('A392.54523_4025100uu_stp','A392.54523_4025100uu_stp',' ',(#19));
#19=PRODUCT_CONTEXT(' ',#21,'mechanical');
#20=APPLICATION_PROTOCOL_DEFINITION('international standard','automotive_design',
     2001,#21);
#21=APPLICATION_CONTEXT('core data for automotive mechanical design processes');
#22=SHAPE_REPRESENTATION('A392.54523_4025100uu_stp-None',(#223),#385);
#23=PRESENTATION_LAYER_ASSIGNMENT('1','Layer 1',(#32));
#24=STYLED_ITEM('',(#25),#32);
#25=PRESENTATION_STYLE_ASSIGNMENT((#26));
#26=SURFACE_STYLE_USAGE(.BOTH.,#27);
#27=SURFACE_SIDE_STYLE('',(#28));
#28=SURFACE_STYLE_FILL_AREA(#29);
#29=FILL_AREA_STYLE('',(#30));
#30=FILL_AREA_STYLE_COLOUR('',#31);
#31=COLOUR_RGB('TLS_NOCUT',0.499992370489052,0.499992370489052,0.499992370489052);
#32=MANIFOLD_SOLID_BREP('NOCUT',#33);
#33=CLOSED_SHELL('',(#77,#78,#79,#80,#81,#82,#83,#84,#85,#86,#87,#88,#89,#90,#91,
     #92,#93,#94));
#34=CYLINDRICAL_SURFACE('',#231,21.925);
#35=CYLINDRICAL_SURFACE('',#235,31.75);
#36=CYLINDRICAL_SURFACE('',#241,28.0);
#37=CYLINDRICAL_SURFACE('',#247,31.75);
#38=CYLINDRICAL_SURFACE('',#251,22.225);
#39=CYLINDRICAL_SURFACE('',#255,28.55);
#40=CONICAL_SURFACE('',#227,12.2717837242416,8.29722000000014);
#41=CONICAL_SURFACE('',#229,22.225,35.0);
#42=CONICAL_SURFACE('',#237,31.75,60.0);
#43=CONICAL_SURFACE('',#245,28.9741978045701,60.0);
#44=CONICAL_SURFACE('',#257,28.55,30.0);
#45=FACE_BOUND('',#105,.T.);
#46=FACE_BOUND('',#106,.T.);
#47=FACE_BOUND('',#107,.T.);
#48=FACE_BOUND('',#108,.T.);
#49=FACE_BOUND('',#109,.T.);
#50=FACE_BOUND('',#110,.T.);
#51=FACE_BOUND('',#111,.T.);
#52=FACE_BOUND('',#112,.T.);
#53=FACE_BOUND('',#113,.T.);
#54=FACE_BOUND('',#114,.T.);
#55=FACE_BOUND('',#115,.T.);
#56=FACE_BOUND('',#116,.T.);
#57=FACE_BOUND('',#117,.T.);
#58=FACE_BOUND('',#118,.T.);
#59=FACE_BOUND('',#119,.T.);
#60=FACE_BOUND('',#120,.T.);
#61=FACE_BOUND('',#121,.T.);
#62=FACE_BOUND('',#122,.T.);
#63=FACE_BOUND('',#123,.T.);
#64=FACE_BOUND('',#124,.T.);
#65=FACE_BOUND('',#125,.T.);
#66=FACE_BOUND('',#126,.T.);
#67=FACE_BOUND('',#127,.T.);
#68=FACE_BOUND('',#128,.T.);
#69=FACE_BOUND('',#129,.T.);
#70=FACE_BOUND('',#130,.T.);
#71=FACE_BOUND('',#131,.T.);
#72=FACE_BOUND('',#132,.T.);
#73=FACE_BOUND('',#133,.T.);
#74=FACE_BOUND('',#134,.T.);
#75=FACE_BOUND('',#135,.T.);
#76=FACE_BOUND('',#136,.T.);
#77=ADVANCED_FACE('',(#102),#95,.T.);
#78=ADVANCED_FACE('',(#45,#46),#40,.T.);
#79=ADVANCED_FACE('',(#47,#48),#41,.T.);
#80=ADVANCED_FACE('',(#49,#50),#34,.T.);
#81=ADVANCED_FACE('',(#51,#52),#96,.T.);
#82=ADVANCED_FACE('',(#53,#54),#35,.T.);
#83=ADVANCED_FACE('',(#55,#56),#42,.T.);
#84=ADVANCED_FACE('',(#57,#58),#97,.T.);
#85=ADVANCED_FACE('',(#59,#60),#36,.T.);
#86=ADVANCED_FACE('',(#61,#62),#98,.T.);
#87=ADVANCED_FACE('',(#63,#64),#43,.T.);
#88=ADVANCED_FACE('',(#65,#66),#37,.T.);
#89=ADVANCED_FACE('',(#67,#68),#99,.T.);
#90=ADVANCED_FACE('',(#69,#70),#38,.T.);
#91=ADVANCED_FACE('',(#71,#72),#100,.T.);
#92=ADVANCED_FACE('',(#73,#74),#39,.T.);
#93=ADVANCED_FACE('',(#75,#76),#44,.T.);
#94=ADVANCED_FACE('',(#103),#101,.T.);
#95=PLANE('',#225);
#96=PLANE('',#233);
#97=PLANE('',#239);
#98=PLANE('',#243);
#99=PLANE('',#249);
#100=PLANE('',#253);
#101=PLANE('',#258);
#102=FACE_OUTER_BOUND('',#104,.T.);
#103=FACE_OUTER_BOUND('',#137,.T.);
#104=EDGE_LOOP('',(#138));
#105=EDGE_LOOP('',(#139));
#106=EDGE_LOOP('',(#140));
#107=EDGE_LOOP('',(#141));
#108=EDGE_LOOP('',(#142));
#109=EDGE_LOOP('',(#143));
#110=EDGE_LOOP('',(#144));
#111=EDGE_LOOP('',(#145));
#112=EDGE_LOOP('',(#146));
#113=EDGE_LOOP('',(#147));
#114=EDGE_LOOP('',(#148));
#115=EDGE_LOOP('',(#149));
#116=EDGE_LOOP('',(#150));
#117=EDGE_LOOP('',(#151));
#118=EDGE_LOOP('',(#152));
#119=EDGE_LOOP('',(#153));
#120=EDGE_LOOP('',(#154));
#121=EDGE_LOOP('',(#155));
#122=EDGE_LOOP('',(#156));
#123=EDGE_LOOP('',(#157));
#124=EDGE_LOOP('',(#158));
#125=EDGE_LOOP('',(#159));
#126=EDGE_LOOP('',(#160));
#127=EDGE_LOOP('',(#161));
#128=EDGE_LOOP('',(#162));
#129=EDGE_LOOP('',(#163));
#130=EDGE_LOOP('',(#164));
#131=EDGE_LOOP('',(#165));
#132=EDGE_LOOP('',(#166));
#133=EDGE_LOOP('',(#167));
#134=EDGE_LOOP('',(#168));
#135=EDGE_LOOP('',(#169));
#136=EDGE_LOOP('',(#170));
#137=EDGE_LOOP('',(#171));
#138=ORIENTED_EDGE('',*,*,#189,.T.);
#139=ORIENTED_EDGE('',*,*,#190,.T.);
#140=ORIENTED_EDGE('',*,*,#189,.F.);
#141=ORIENTED_EDGE('',*,*,#191,.T.);
#142=ORIENTED_EDGE('',*,*,#190,.F.);
#143=ORIENTED_EDGE('',*,*,#192,.T.);
#144=ORIENTED_EDGE('',*,*,#191,.F.);
#145=ORIENTED_EDGE('',*,*,#193,.T.);
#146=ORIENTED_EDGE('',*,*,#192,.F.);
#147=ORIENTED_EDGE('',*,*,#194,.T.);
#148=ORIENTED_EDGE('',*,*,#193,.F.);
#149=ORIENTED_EDGE('',*,*,#195,.T.);
#150=ORIENTED_EDGE('',*,*,#194,.F.);
#151=ORIENTED_EDGE('',*,*,#196,.T.);
#152=ORIENTED_EDGE('',*,*,#195,.F.);
#153=ORIENTED_EDGE('',*,*,#197,.T.);
#154=ORIENTED_EDGE('',*,*,#196,.F.);
#155=ORIENTED_EDGE('',*,*,#198,.T.);
#156=ORIENTED_EDGE('',*,*,#197,.F.);
#157=ORIENTED_EDGE('',*,*,#199,.T.);
#158=ORIENTED_EDGE('',*,*,#198,.F.);
#159=ORIENTED_EDGE('',*,*,#200,.T.);
#160=ORIENTED_EDGE('',*,*,#199,.F.);
#161=ORIENTED_EDGE('',*,*,#201,.T.);
#162=ORIENTED_EDGE('',*,*,#200,.F.);
#163=ORIENTED_EDGE('',*,*,#202,.T.);
#164=ORIENTED_EDGE('',*,*,#201,.F.);
#165=ORIENTED_EDGE('',*,*,#203,.T.);
#166=ORIENTED_EDGE('',*,*,#202,.F.);
#167=ORIENTED_EDGE('',*,*,#204,.T.);
#168=ORIENTED_EDGE('',*,*,#203,.F.);
#169=ORIENTED_EDGE('',*,*,#205,.T.);
#170=ORIENTED_EDGE('',*,*,#204,.F.);
#171=ORIENTED_EDGE('',*,*,#205,.F.);
#172=VERTEX_POINT('',#333);
#173=VERTEX_POINT('',#336);
#174=VERTEX_POINT('',#339);
#175=VERTEX_POINT('',#342);
#176=VERTEX_POINT('',#345);
#177=VERTEX_POINT('',#348);
#178=VERTEX_POINT('',#351);
#179=VERTEX_POINT('',#354);
#180=VERTEX_POINT('',#357);
#181=VERTEX_POINT('',#360);
#182=VERTEX_POINT('',#363);
#183=VERTEX_POINT('',#366);
#184=VERTEX_POINT('',#369);
#185=VERTEX_POINT('',#372);
#186=VERTEX_POINT('',#375);
#187=VERTEX_POINT('',#378);
#188=VERTEX_POINT('',#381);
#189=EDGE_CURVE('',#172,#172,#206,.T.);
#190=EDGE_CURVE('',#173,#173,#207,.T.);
#191=EDGE_CURVE('',#174,#174,#208,.T.);
#192=EDGE_CURVE('',#175,#175,#209,.T.);
#193=EDGE_CURVE('',#176,#176,#210,.T.);
#194=EDGE_CURVE('',#177,#177,#211,.T.);
#195=EDGE_CURVE('',#178,#178,#212,.T.);
#196=EDGE_CURVE('',#179,#179,#213,.T.);
#197=EDGE_CURVE('',#180,#180,#214,.T.);
#198=EDGE_CURVE('',#181,#181,#215,.T.);
#199=EDGE_CURVE('',#182,#182,#216,.T.);
#200=EDGE_CURVE('',#183,#183,#217,.T.);
#201=EDGE_CURVE('',#184,#184,#218,.T.);
#202=EDGE_CURVE('',#185,#185,#219,.T.);
#203=EDGE_CURVE('',#186,#186,#220,.T.);
#204=EDGE_CURVE('',#187,#187,#221,.T.);
#205=EDGE_CURVE('',#188,#188,#222,.T.);
#206=CIRCLE('',#224,12.2717837242416);
#207=CIRCLE('',#226,22.225);
#208=CIRCLE('',#228,21.925);
#209=CIRCLE('',#230,21.925);
#210=CIRCLE('',#232,31.75);
#211=CIRCLE('',#234,31.75);
#212=CIRCLE('',#236,28.9741978045701);
#213=CIRCLE('',#238,28.0);
#214=CIRCLE('',#240,28.0);
#215=CIRCLE('',#242,28.9741978045701);
#216=CIRCLE('',#244,31.75);
#217=CIRCLE('',#246,31.75);
#218=CIRCLE('',#248,22.225);
#219=CIRCLE('',#250,22.225);
#220=CIRCLE('',#252,28.55);
#221=CIRCLE('',#254,28.55);
#222=CIRCLE('',#256,24.2198729810778);
#223=AXIS2_PLACEMENT_3D('',#331,#259,#260);
#224=AXIS2_PLACEMENT_3D('',#332,#261,#262);
#225=AXIS2_PLACEMENT_3D('',#334,#263,#264);
#226=AXIS2_PLACEMENT_3D('',#335,#265,#266);
#227=AXIS2_PLACEMENT_3D('',#337,#267,#268);
#228=AXIS2_PLACEMENT_3D('',#338,#269,#270);
#229=AXIS2_PLACEMENT_3D('',#340,#271,#272);
#230=AXIS2_PLACEMENT_3D('',#341,#273,#274);
#231=AXIS2_PLACEMENT_3D('',#343,#275,#276);
#232=AXIS2_PLACEMENT_3D('',#344,#277,#278);
#233=AXIS2_PLACEMENT_3D('',#346,#279,#280);
#234=AXIS2_PLACEMENT_3D('',#347,#281,#282);
#235=AXIS2_PLACEMENT_3D('',#349,#283,#284);
#236=AXIS2_PLACEMENT_3D('',#350,#285,#286);
#237=AXIS2_PLACEMENT_3D('',#352,#287,#288);
#238=AXIS2_PLACEMENT_3D('',#353,#289,#290);
#239=AXIS2_PLACEMENT_3D('',#355,#291,#292);
#240=AXIS2_PLACEMENT_3D('',#356,#293,#294);
#241=AXIS2_PLACEMENT_3D('',#358,#295,#296);
#242=AXIS2_PLACEMENT_3D('',#359,#297,#298);
#243=AXIS2_PLACEMENT_3D('',#361,#299,#300);
#244=AXIS2_PLACEMENT_3D('',#362,#301,#302);
#245=AXIS2_PLACEMENT_3D('',#364,#303,#304);
#246=AXIS2_PLACEMENT_3D('',#365,#305,#306);
#247=AXIS2_PLACEMENT_3D('',#367,#307,#308);
#248=AXIS2_PLACEMENT_3D('',#368,#309,#310);
#249=AXIS2_PLACEMENT_3D('',#370,#311,#312);
#250=AXIS2_PLACEMENT_3D('',#371,#313,#314);
#251=AXIS2_PLACEMENT_3D('',#373,#315,#316);
#252=AXIS2_PLACEMENT_3D('',#374,#317,#318);
#253=AXIS2_PLACEMENT_3D('',#376,#319,#320);
#254=AXIS2_PLACEMENT_3D('',#377,#321,#322);
#255=AXIS2_PLACEMENT_3D('',#379,#323,#324);
#256=AXIS2_PLACEMENT_3D('',#380,#325,#326);
#257=AXIS2_PLACEMENT_3D('',#382,#327,#328);
#258=AXIS2_PLACEMENT_3D('',#383,#329,#330);
#259=DIRECTION('',(0.0,0.0,1.0));
#260=DIRECTION('',(1.0,0.0,0.0));
#261=DIRECTION('',(0.0,0.0,1.0));
#262=DIRECTION('',(1.0,0.0,0.0));
#263=DIRECTION('',(0.0,0.0,1.0));
#264=DIRECTION('',(1.0,0.0,0.0));
#265=DIRECTION('',(0.0,0.0,1.0));
#266=DIRECTION('',(1.0,0.0,0.0));
#267=DIRECTION('',(0.0,0.0,-1.0));
#268=DIRECTION('',(-1.0,0.0,1.75549921193666E-16));
#269=DIRECTION('',(0.0,0.0,1.0));
#270=DIRECTION('',(1.0,0.0,0.0));
#271=DIRECTION('',(0.0,0.0,1.0));
#272=DIRECTION('',(1.0,0.0,0.0));
#273=DIRECTION('',(0.0,0.0,1.0));
#274=DIRECTION('',(1.0,0.0,0.0));
#275=DIRECTION('',(0.0,0.0,1.0));
#276=DIRECTION('',(1.0,0.0,0.0));
#277=DIRECTION('',(0.0,0.0,1.0));
#278=DIRECTION('',(1.0,0.0,0.0));
#279=DIRECTION('',(0.0,0.0,1.0));
#280=DIRECTION('',(1.0,0.0,0.0));
#281=DIRECTION('',(0.0,0.0,1.0));
#282=DIRECTION('',(1.0,0.0,0.0));
#283=DIRECTION('',(0.0,0.0,1.0));
#284=DIRECTION('',(1.0,0.0,0.0));
#285=DIRECTION('',(0.0,0.0,1.0));
#286=DIRECTION('',(1.0,0.0,0.0));
#287=DIRECTION('',(0.0,0.0,1.0));
#288=DIRECTION('',(1.0,0.0,-2.7046645734966E-17));
#289=DIRECTION('',(0.0,0.0,1.0));
#290=DIRECTION('',(1.0,0.0,0.0));
#291=DIRECTION('',(0.0,0.0,-1.0));
#292=DIRECTION('',(-1.0,0.0,0.0));
#293=DIRECTION('',(0.0,0.0,1.0));
#294=DIRECTION('',(1.0,0.0,0.0));
#295=DIRECTION('',(0.0,0.0,1.0));
#296=DIRECTION('',(1.0,0.0,0.0));
#297=DIRECTION('',(0.0,0.0,1.0));
#298=DIRECTION('',(1.0,0.0,0.0));
#299=DIRECTION('',(0.0,0.0,1.0));
#300=DIRECTION('',(1.0,0.0,0.0));
#301=DIRECTION('',(0.0,0.0,1.0));
#302=DIRECTION('',(1.0,0.0,0.0));
#303=DIRECTION('',(0.0,0.0,-1.0));
#304=DIRECTION('',(-1.0,0.0,-3.64473919537166E-17));
#305=DIRECTION('',(0.0,0.0,1.0));
#306=DIRECTION('',(1.0,0.0,0.0));
#307=DIRECTION('',(0.0,0.0,1.0));
#308=DIRECTION('',(1.0,0.0,0.0));
#309=DIRECTION('',(0.0,0.0,1.0));
#310=DIRECTION('',(1.0,0.0,0.0));
#311=DIRECTION('',(0.0,0.0,-1.0));
#312=DIRECTION('',(-1.0,0.0,0.0));
#313=DIRECTION('',(0.0,0.0,1.0));
#314=DIRECTION('',(1.0,0.0,0.0));
#315=DIRECTION('',(0.0,0.0,1.0));
#316=DIRECTION('',(1.0,0.0,0.0));
#317=DIRECTION('',(0.0,0.0,1.0));
#318=DIRECTION('',(1.0,0.0,0.0));
#319=DIRECTION('',(0.0,0.0,1.0));
#320=DIRECTION('',(1.0,0.0,0.0));
#321=DIRECTION('',(0.0,0.0,1.0));
#322=DIRECTION('',(1.0,0.0,0.0));
#323=DIRECTION('',(0.0,0.0,1.0));
#324=DIRECTION('',(1.0,0.0,0.0));
#325=DIRECTION('',(0.0,0.0,1.0));
#326=DIRECTION('',(1.0,0.0,0.0));
#327=DIRECTION('',(0.0,0.0,1.0));
#328=DIRECTION('',(1.0,0.0,-4.5808818756181E-17));
#329=DIRECTION('',(0.0,0.0,-1.0));
#330=DIRECTION('',(-1.0,0.0,0.0));
#331=CARTESIAN_POINT('',(0.0,0.0,0.0));
#332=CARTESIAN_POINT('',(0.0,0.0,68.25));
#333=CARTESIAN_POINT('',(12.2717837242416,0.0,68.25));
#334=CARTESIAN_POINT('',(0.0,9.74,68.25));
#335=CARTESIAN_POINT('',(0.0,0.0,0.0));
#336=CARTESIAN_POINT('',(22.225,0.0,0.0));
#337=CARTESIAN_POINT('',(0.0,0.0,68.25));
#338=CARTESIAN_POINT('',(0.0,0.0,-0.428444402022637));
#339=CARTESIAN_POINT('',(21.925,0.0,-0.428444402022637));
#340=CARTESIAN_POINT('',(0.0,0.0,0.0));
#341=CARTESIAN_POINT('',(0.0,0.0,-1.0));
#342=CARTESIAN_POINT('',(21.925,0.0,-1.0));
#343=CARTESIAN_POINT('',(0.0,0.0,0.0));
#344=CARTESIAN_POINT('',(0.0,0.0,-1.0));
#345=CARTESIAN_POINT('',(31.75,0.0,-1.0));
#346=CARTESIAN_POINT('',(0.0,21.925,-1.0));
#347=CARTESIAN_POINT('',(0.0,0.0,-7.57238985525139));
#348=CARTESIAN_POINT('',(31.75,0.0,-7.57238985525139));
#349=CARTESIAN_POINT('',(0.0,0.0,0.0));
#350=CARTESIAN_POINT('',(0.0,0.0,-9.175));
#351=CARTESIAN_POINT('',(28.9741978045701,0.0,-9.175));
#352=CARTESIAN_POINT('',(0.0,0.0,-7.57238985525139));
#353=CARTESIAN_POINT('',(0.0,0.0,-9.175));
#354=CARTESIAN_POINT('',(28.0,0.0,-9.175));
#355=CARTESIAN_POINT('',(0.0,28.9741978045701,-9.175));
#356=CARTESIAN_POINT('',(0.0,0.0,-13.025));
#357=CARTESIAN_POINT('',(28.0,0.0,-13.025));
#358=CARTESIAN_POINT('',(0.0,0.0,0.0));
#359=CARTESIAN_POINT('',(0.0,0.0,-13.025));
#360=CARTESIAN_POINT('',(28.9741978045701,0.0,-13.025));
#361=CARTESIAN_POINT('',(0.0,28.0,-13.025));
#362=CARTESIAN_POINT('',(0.0,0.0,-14.6276101447486));
#363=CARTESIAN_POINT('',(31.75,0.0,-14.6276101447486));
#364=CARTESIAN_POINT('',(0.0,0.0,-13.025));
#365=CARTESIAN_POINT('',(0.0,0.0,-19.05));
#366=CARTESIAN_POINT('',(31.75,0.0,-19.05));
#367=CARTESIAN_POINT('',(0.0,0.0,0.0));
#368=CARTESIAN_POINT('',(0.0,0.0,-19.05));
#369=CARTESIAN_POINT('',(22.225,0.0,-19.05));
#370=CARTESIAN_POINT('',(0.0,31.75,-19.05));
#371=CARTESIAN_POINT('',(0.0,0.0,-35.25));
#372=CARTESIAN_POINT('',(22.225,0.0,-35.25));
#373=CARTESIAN_POINT('',(0.0,0.0,0.0));
#374=CARTESIAN_POINT('',(0.0,0.0,-35.25));
#375=CARTESIAN_POINT('',(28.55,0.0,-35.25));
#376=CARTESIAN_POINT('',(0.0,22.225,-35.25));
#377=CARTESIAN_POINT('',(0.0,0.0,-92.5));
#378=CARTESIAN_POINT('',(28.55,0.0,-92.5));
#379=CARTESIAN_POINT('',(0.0,0.0,0.0));
#380=CARTESIAN_POINT('',(0.0,0.0,-100.0));
#381=CARTESIAN_POINT('',(24.2198729810778,0.0,-100.0));
#382=CARTESIAN_POINT('',(0.0,0.0,-92.5));
#383=CARTESIAN_POINT('',(0.0,24.2198729810778,-100.0));
#384=MECHANICAL_DESIGN_GEOMETRIC_PRESENTATION_REPRESENTATION('',(#24),#385);
#385=(GEOMETRIC_REPRESENTATION_CONTEXT(3)GLOBAL_UNCERTAINTY_ASSIGNED_CONTEXT((#386))
     GLOBAL_UNIT_ASSIGNED_CONTEXT((#392,#388,#387))REPRESENTATION_CONTEXT('A392',
     'TOP_LEVEL_ASSEMBLY_PART'));
#386=UNCERTAINTY_MEASURE_WITH_UNIT(LENGTH_MEASURE(2.0E-5),#392,'DISTANCE_ACCURACY_VALUE',
     'Maximum Tolerance applied to model');
#387=(NAMED_UNIT(*)SI_UNIT($,.STERADIAN.)SOLID_ANGLE_UNIT());
#388=(CONVERSION_BASED_UNIT('DEGREE',#390)NAMED_UNIT(*)PLANE_ANGLE_UNIT());
#389=DIMENSIONAL_EXPONENTS(0.0,0.0,0.0,0.0,0.0,0.0,0.0);
#390=PLANE_ANGLE_MEASURE_WITH_UNIT(PLANE_ANGLE_MEASURE(0.0174532925),#391);
#391=(NAMED_UNIT(*)PLANE_ANGLE_UNIT()SI_UNIT($,.RADIAN.));
#392=(LENGTH_UNIT()NAMED_UNIT(*)SI_UNIT(.MILLI.,.METRE.));
#393=CARTESIAN_POINT('',(0.0,0.0,0.0));
#394=DIRECTION('',(0.0,0.0,1.0));
#395=DIRECTION('',(1.0,0.0,0.0));
#396=AXIS2_PLACEMENT_3D('PCS',#393,#394,#395);
#397=CARTESIAN_POINT('',(0.0,0.0,0.0));
#398=DIRECTION('',(0.0,0.0,1.0));
#399=DIRECTION('',(1.0,0.0,0.0));
#400=AXIS2_PLACEMENT_3D('MCS',#397,#398,#399);
#401=CARTESIAN_POINT('',(0.0,0.0,-100.0));
#402=DIRECTION('',(0.0,0.0,1.0));
#403=DIRECTION('',(1.0,0.0,0.0));
#404=AXIS2_PLACEMENT_3D('CSW',#401,#402,#403);
#405=CONSTRUCTIVE_GEOMETRY_REPRESENTATION('supplemental geometry',(#396,#400,#404),
     #385);
#406=CONSTRUCTIVE_GEOMETRY_REPRESENTATION_RELATIONSHIP('supplemental geometry',$,
     #22,#405);
ENDSEC;
END-ISO-10303-21;
