ISO-10303-21;
HEADER;
FILE_DESCRIPTION(
/* description */ ('3-D model version:1'),
/* implementation_level */ '2;1');
FILE_NAME(
/* name */ 'A392.54505C4038060M',
/* time_stamp */ '2016-12-02T14:00:26',
/* author */ ('InteractiveCad'),
/* organization */ ('AB Sandvik Coromant'),
/* preprocessor_version */ 'ST-DEVELOPER v11',
/* originating_system */ 'SIEMENS UGS NX 6.0',
/* authorization */ '');
FILE_SCHEMA(('AUTOMOTIVE_DESIGN'));
ENDSEC;
DATA;
#10=SHAPE_REPRESENTATION_RELATIONSHIP('None','relationship between A392.54505C4038060M_635406740696460804_1_stp-None\X\0D and A392.54505C4038060M_635406740696460804_1_stp-None',
     #22,#11);
#11=ADVANCED_BREP_SHAPE_REPRESENTATION('A392.54505C4038060M_635406740696460804_1_stp-None',
     (#32),#745);
#12=SHAPE_DEFINITION_REPRESENTATION(#13,#22);
#13=PRODUCT_DEFINITION_SHAPE('','',#14);
#14=PRODUCT_DEFINITION(' ','',#16,#15);
#15=PRODUCT_DEFINITION_CONTEXT('part definition',#21,'design');
#16=PRODUCT_DEFINITION_FORMATION_WITH_SPECIFIED_SOURCE(' ',' ',#18,.NOT_KNOWN.);
#17=PRODUCT_RELATED_PRODUCT_CATEGORY('part','',(#18));
#18=PRODUCT('A392.54505C4038060M_635406740696460804_1_stp','A392.54505C4038060M_635406740696460804_1_stp',
     ' ',(#19));
#19=PRODUCT_CONTEXT(' ',#21,'mechanical');
#20=APPLICATION_PROTOCOL_DEFINITION('international standard','automotive_design',
     2001,#21);
#21=APPLICATION_CONTEXT('core data for automotive mechanical design processes');
#22=SHAPE_REPRESENTATION('A392.54505C4038060M_635406740696460804_1_stp-None',(#421),
     #745);
#23=PRESENTATION_LAYER_ASSIGNMENT('1','Layer 1',(#32));
#24=STYLED_ITEM('',(#25),#32);
#25=PRESENTATION_STYLE_ASSIGNMENT((#26));
#26=SURFACE_STYLE_USAGE(.BOTH.,#27);
#27=SURFACE_SIDE_STYLE('',(#28));
#28=SURFACE_STYLE_FILL_AREA(#29);
#29=FILL_AREA_STYLE('',(#30));
#30=FILL_AREA_STYLE_COLOUR('',#31);
#31=COLOUR_RGB('TLS_NOCUT',0.499992370489052,0.499992370489052,0.499992370489052);
#32=MANIFOLD_SOLID_BREP('NOCUT',#33);
#33=CLOSED_SHELL('',(#127,#128,#129,#130,#131,#132,#133,#134,#135,#136,#137,#138,
     #139,#140,#141,#142,#143,#144,#145,#146,#147,#148,#149,#150,#151,#152,#153,
     #154,#155,#156,#157,#158,#159,#160,#161,#162));
#34=TOROIDAL_SURFACE('',#433,10.825,2.5);
#35=CYLINDRICAL_SURFACE('',#427,23.625);
#36=CYLINDRICAL_SURFACE('',#435,8.325);
#37=CYLINDRICAL_SURFACE('',#439,9.52500000000002);
#38=CYLINDRICAL_SURFACE('',#443,10.0);
#39=CYLINDRICAL_SURFACE('',#451,19.041);
#40=CYLINDRICAL_SURFACE('',#455,18.5);
#41=CYLINDRICAL_SURFACE('',#459,19.041);
#42=CYLINDRICAL_SURFACE('',#465,43.5);
#43=CYLINDRICAL_SURFACE('',#469,22.225);
#44=CYLINDRICAL_SURFACE('',#473,31.75);
#45=CYLINDRICAL_SURFACE('',#479,28.0);
#46=CYLINDRICAL_SURFACE('',#483,31.75);
#47=CONICAL_SURFACE('',#425,22.625,44.9999999999997);
#48=CONICAL_SURFACE('',#429,23.625,45.0000000000001);
#49=CONICAL_SURFACE('',#437,8.325,30.0000000000007);
#50=CONICAL_SURFACE('',#441,9.525,70.0000000000016);
#51=CONICAL_SURFACE('',#445,10.0,29.9999999999974);
#52=CONICAL_SURFACE('',#449,18.4636497308104,29.9999999999991);
#53=CONICAL_SURFACE('',#453,19.041,29.9999999999992);
#54=CONICAL_SURFACE('',#457,18.5,29.9999999999989);
#55=CONICAL_SURFACE('',#461,19.041,75.0000000000004);
#56=CONICAL_SURFACE('',#475,31.75,60.0000000000001);
#57=CONICAL_SURFACE('',#487,24.1,75.0000000000005);
#58=CONICAL_SURFACE('',#491,22.4145850719192,8.29722000000015);
#59=FACE_BOUND('',#177,.T.);
#60=FACE_BOUND('',#178,.T.);
#61=FACE_BOUND('',#179,.T.);
#62=FACE_BOUND('',#180,.T.);
#63=FACE_BOUND('',#181,.T.);
#64=FACE_BOUND('',#182,.T.);
#65=FACE_BOUND('',#183,.T.);
#66=FACE_BOUND('',#184,.T.);
#67=FACE_BOUND('',#185,.T.);
#68=FACE_BOUND('',#186,.T.);
#69=FACE_BOUND('',#187,.T.);
#70=FACE_BOUND('',#188,.T.);
#71=FACE_BOUND('',#189,.T.);
#72=FACE_BOUND('',#190,.T.);
#73=FACE_BOUND('',#191,.T.);
#74=FACE_BOUND('',#192,.T.);
#75=FACE_BOUND('',#193,.T.);
#76=FACE_BOUND('',#194,.T.);
#77=FACE_BOUND('',#195,.T.);
#78=FACE_BOUND('',#196,.T.);
#79=FACE_BOUND('',#197,.T.);
#80=FACE_BOUND('',#198,.T.);
#81=FACE_BOUND('',#199,.T.);
#82=FACE_BOUND('',#200,.T.);
#83=FACE_BOUND('',#201,.T.);
#84=FACE_BOUND('',#202,.T.);
#85=FACE_BOUND('',#203,.T.);
#86=FACE_BOUND('',#204,.T.);
#87=FACE_BOUND('',#205,.T.);
#88=FACE_BOUND('',#206,.T.);
#89=FACE_BOUND('',#207,.T.);
#90=FACE_BOUND('',#208,.T.);
#91=FACE_BOUND('',#209,.T.);
#92=FACE_BOUND('',#210,.T.);
#93=FACE_BOUND('',#211,.T.);
#94=FACE_BOUND('',#212,.T.);
#95=FACE_BOUND('',#213,.T.);
#96=FACE_BOUND('',#214,.T.);
#97=FACE_BOUND('',#215,.T.);
#98=FACE_BOUND('',#216,.T.);
#99=FACE_BOUND('',#217,.T.);
#100=FACE_BOUND('',#218,.T.);
#101=FACE_BOUND('',#219,.T.);
#102=FACE_BOUND('',#220,.T.);
#103=FACE_BOUND('',#221,.T.);
#104=FACE_BOUND('',#222,.T.);
#105=FACE_BOUND('',#223,.T.);
#106=FACE_BOUND('',#224,.T.);
#107=FACE_BOUND('',#225,.T.);
#108=FACE_BOUND('',#226,.T.);
#109=FACE_BOUND('',#227,.T.);
#110=FACE_BOUND('',#228,.T.);
#111=FACE_BOUND('',#229,.T.);
#112=FACE_BOUND('',#230,.T.);
#113=FACE_BOUND('',#231,.T.);
#114=FACE_BOUND('',#232,.T.);
#115=FACE_BOUND('',#233,.T.);
#116=FACE_BOUND('',#234,.T.);
#117=FACE_BOUND('',#235,.T.);
#118=FACE_BOUND('',#236,.T.);
#119=FACE_BOUND('',#237,.T.);
#120=FACE_BOUND('',#238,.T.);
#121=FACE_BOUND('',#239,.T.);
#122=FACE_BOUND('',#240,.T.);
#123=FACE_BOUND('',#241,.T.);
#124=FACE_BOUND('',#242,.T.);
#125=FACE_BOUND('',#243,.T.);
#126=FACE_BOUND('',#244,.T.);
#127=ADVANCED_FACE('',(#174),#163,.F.);
#128=ADVANCED_FACE('',(#59,#60),#47,.T.);
#129=ADVANCED_FACE('',(#61,#62),#35,.T.);
#130=ADVANCED_FACE('',(#63,#64),#48,.T.);
#131=ADVANCED_FACE('',(#65,#66),#164,.F.);
#132=ADVANCED_FACE('',(#67,#68),#34,.F.);
#133=ADVANCED_FACE('',(#69,#70),#36,.T.);
#134=ADVANCED_FACE('',(#71,#72),#49,.T.);
#135=ADVANCED_FACE('',(#73,#74),#37,.T.);
#136=ADVANCED_FACE('',(#75,#76),#50,.F.);
#137=ADVANCED_FACE('',(#77,#78),#38,.F.);
#138=ADVANCED_FACE('',(#79,#80),#51,.F.);
#139=ADVANCED_FACE('',(#81,#82),#165,.F.);
#140=ADVANCED_FACE('',(#83,#84),#52,.T.);
#141=ADVANCED_FACE('',(#85,#86),#39,.T.);
#142=ADVANCED_FACE('',(#87,#88),#53,.T.);
#143=ADVANCED_FACE('',(#89,#90),#40,.T.);
#144=ADVANCED_FACE('',(#91,#92),#54,.T.);
#145=ADVANCED_FACE('',(#93,#94),#41,.T.);
#146=ADVANCED_FACE('',(#95,#96),#55,.F.);
#147=ADVANCED_FACE('',(#97,#98),#166,.F.);
#148=ADVANCED_FACE('',(#99,#100),#42,.T.);
#149=ADVANCED_FACE('',(#101,#102),#167,.F.);
#150=ADVANCED_FACE('',(#103,#104),#43,.T.);
#151=ADVANCED_FACE('',(#105,#106),#168,.F.);
#152=ADVANCED_FACE('',(#107,#108),#44,.T.);
#153=ADVANCED_FACE('',(#109,#110),#56,.T.);
#154=ADVANCED_FACE('',(#111,#112),#169,.F.);
#155=ADVANCED_FACE('',(#113,#114),#45,.T.);
#156=ADVANCED_FACE('',(#115,#116),#170,.F.);
#157=ADVANCED_FACE('',(#117,#118),#46,.T.);
#158=ADVANCED_FACE('',(#119,#120),#171,.F.);
#159=ADVANCED_FACE('',(#121,#122),#57,.F.);
#160=ADVANCED_FACE('',(#123,#124),#172,.F.);
#161=ADVANCED_FACE('',(#125,#126),#58,.T.);
#162=ADVANCED_FACE('',(#175),#173,.F.);
#163=PLANE('',#423);
#164=PLANE('',#431);
#165=PLANE('',#447);
#166=PLANE('',#463);
#167=PLANE('',#467);
#168=PLANE('',#471);
#169=PLANE('',#477);
#170=PLANE('',#481);
#171=PLANE('',#485);
#172=PLANE('',#489);
#173=PLANE('',#492);
#174=FACE_OUTER_BOUND('',#176,.T.);
#175=FACE_OUTER_BOUND('',#245,.T.);
#176=EDGE_LOOP('',(#246));
#177=EDGE_LOOP('',(#247));
#178=EDGE_LOOP('',(#248));
#179=EDGE_LOOP('',(#249));
#180=EDGE_LOOP('',(#250));
#181=EDGE_LOOP('',(#251));
#182=EDGE_LOOP('',(#252));
#183=EDGE_LOOP('',(#253));
#184=EDGE_LOOP('',(#254));
#185=EDGE_LOOP('',(#255));
#186=EDGE_LOOP('',(#256));
#187=EDGE_LOOP('',(#257));
#188=EDGE_LOOP('',(#258));
#189=EDGE_LOOP('',(#259));
#190=EDGE_LOOP('',(#260));
#191=EDGE_LOOP('',(#261));
#192=EDGE_LOOP('',(#262));
#193=EDGE_LOOP('',(#263));
#194=EDGE_LOOP('',(#264));
#195=EDGE_LOOP('',(#265));
#196=EDGE_LOOP('',(#266));
#197=EDGE_LOOP('',(#267));
#198=EDGE_LOOP('',(#268));
#199=EDGE_LOOP('',(#269));
#200=EDGE_LOOP('',(#270));
#201=EDGE_LOOP('',(#271));
#202=EDGE_LOOP('',(#272));
#203=EDGE_LOOP('',(#273));
#204=EDGE_LOOP('',(#274));
#205=EDGE_LOOP('',(#275));
#206=EDGE_LOOP('',(#276));
#207=EDGE_LOOP('',(#277));
#208=EDGE_LOOP('',(#278));
#209=EDGE_LOOP('',(#279));
#210=EDGE_LOOP('',(#280));
#211=EDGE_LOOP('',(#281));
#212=EDGE_LOOP('',(#282));
#213=EDGE_LOOP('',(#283));
#214=EDGE_LOOP('',(#284));
#215=EDGE_LOOP('',(#285));
#216=EDGE_LOOP('',(#286));
#217=EDGE_LOOP('',(#287));
#218=EDGE_LOOP('',(#288));
#219=EDGE_LOOP('',(#289));
#220=EDGE_LOOP('',(#290));
#221=EDGE_LOOP('',(#291));
#222=EDGE_LOOP('',(#292));
#223=EDGE_LOOP('',(#293));
#224=EDGE_LOOP('',(#294));
#225=EDGE_LOOP('',(#295));
#226=EDGE_LOOP('',(#296));
#227=EDGE_LOOP('',(#297));
#228=EDGE_LOOP('',(#298));
#229=EDGE_LOOP('',(#299));
#230=EDGE_LOOP('',(#300));
#231=EDGE_LOOP('',(#301));
#232=EDGE_LOOP('',(#302));
#233=EDGE_LOOP('',(#303));
#234=EDGE_LOOP('',(#304));
#235=EDGE_LOOP('',(#305));
#236=EDGE_LOOP('',(#306));
#237=EDGE_LOOP('',(#307));
#238=EDGE_LOOP('',(#308));
#239=EDGE_LOOP('',(#309));
#240=EDGE_LOOP('',(#310));
#241=EDGE_LOOP('',(#311));
#242=EDGE_LOOP('',(#312));
#243=EDGE_LOOP('',(#313));
#244=EDGE_LOOP('',(#314));
#245=EDGE_LOOP('',(#315));
#246=ORIENTED_EDGE('',*,*,#351,.F.);
#247=ORIENTED_EDGE('',*,*,#352,.F.);
#248=ORIENTED_EDGE('',*,*,#351,.T.);
#249=ORIENTED_EDGE('',*,*,#353,.F.);
#250=ORIENTED_EDGE('',*,*,#352,.T.);
#251=ORIENTED_EDGE('',*,*,#354,.F.);
#252=ORIENTED_EDGE('',*,*,#353,.T.);
#253=ORIENTED_EDGE('',*,*,#355,.F.);
#254=ORIENTED_EDGE('',*,*,#354,.T.);
#255=ORIENTED_EDGE('',*,*,#356,.F.);
#256=ORIENTED_EDGE('',*,*,#355,.T.);
#257=ORIENTED_EDGE('',*,*,#357,.F.);
#258=ORIENTED_EDGE('',*,*,#356,.T.);
#259=ORIENTED_EDGE('',*,*,#358,.F.);
#260=ORIENTED_EDGE('',*,*,#357,.T.);
#261=ORIENTED_EDGE('',*,*,#359,.F.);
#262=ORIENTED_EDGE('',*,*,#358,.T.);
#263=ORIENTED_EDGE('',*,*,#360,.F.);
#264=ORIENTED_EDGE('',*,*,#359,.T.);
#265=ORIENTED_EDGE('',*,*,#361,.F.);
#266=ORIENTED_EDGE('',*,*,#360,.T.);
#267=ORIENTED_EDGE('',*,*,#362,.F.);
#268=ORIENTED_EDGE('',*,*,#361,.T.);
#269=ORIENTED_EDGE('',*,*,#363,.F.);
#270=ORIENTED_EDGE('',*,*,#362,.T.);
#271=ORIENTED_EDGE('',*,*,#364,.F.);
#272=ORIENTED_EDGE('',*,*,#363,.T.);
#273=ORIENTED_EDGE('',*,*,#365,.F.);
#274=ORIENTED_EDGE('',*,*,#364,.T.);
#275=ORIENTED_EDGE('',*,*,#366,.F.);
#276=ORIENTED_EDGE('',*,*,#365,.T.);
#277=ORIENTED_EDGE('',*,*,#367,.F.);
#278=ORIENTED_EDGE('',*,*,#366,.T.);
#279=ORIENTED_EDGE('',*,*,#368,.F.);
#280=ORIENTED_EDGE('',*,*,#367,.T.);
#281=ORIENTED_EDGE('',*,*,#369,.F.);
#282=ORIENTED_EDGE('',*,*,#368,.T.);
#283=ORIENTED_EDGE('',*,*,#370,.F.);
#284=ORIENTED_EDGE('',*,*,#369,.T.);
#285=ORIENTED_EDGE('',*,*,#371,.F.);
#286=ORIENTED_EDGE('',*,*,#370,.T.);
#287=ORIENTED_EDGE('',*,*,#372,.F.);
#288=ORIENTED_EDGE('',*,*,#371,.T.);
#289=ORIENTED_EDGE('',*,*,#373,.F.);
#290=ORIENTED_EDGE('',*,*,#372,.T.);
#291=ORIENTED_EDGE('',*,*,#374,.F.);
#292=ORIENTED_EDGE('',*,*,#373,.T.);
#293=ORIENTED_EDGE('',*,*,#375,.F.);
#294=ORIENTED_EDGE('',*,*,#374,.T.);
#295=ORIENTED_EDGE('',*,*,#376,.F.);
#296=ORIENTED_EDGE('',*,*,#375,.T.);
#297=ORIENTED_EDGE('',*,*,#377,.F.);
#298=ORIENTED_EDGE('',*,*,#376,.T.);
#299=ORIENTED_EDGE('',*,*,#378,.F.);
#300=ORIENTED_EDGE('',*,*,#377,.T.);
#301=ORIENTED_EDGE('',*,*,#379,.F.);
#302=ORIENTED_EDGE('',*,*,#378,.T.);
#303=ORIENTED_EDGE('',*,*,#380,.F.);
#304=ORIENTED_EDGE('',*,*,#379,.T.);
#305=ORIENTED_EDGE('',*,*,#381,.F.);
#306=ORIENTED_EDGE('',*,*,#380,.T.);
#307=ORIENTED_EDGE('',*,*,#382,.F.);
#308=ORIENTED_EDGE('',*,*,#381,.T.);
#309=ORIENTED_EDGE('',*,*,#383,.F.);
#310=ORIENTED_EDGE('',*,*,#382,.T.);
#311=ORIENTED_EDGE('',*,*,#384,.F.);
#312=ORIENTED_EDGE('',*,*,#383,.T.);
#313=ORIENTED_EDGE('',*,*,#385,.F.);
#314=ORIENTED_EDGE('',*,*,#384,.T.);
#315=ORIENTED_EDGE('',*,*,#385,.T.);
#316=VERTEX_POINT('',#639);
#317=VERTEX_POINT('',#642);
#318=VERTEX_POINT('',#645);
#319=VERTEX_POINT('',#648);
#320=VERTEX_POINT('',#651);
#321=VERTEX_POINT('',#654);
#322=VERTEX_POINT('',#657);
#323=VERTEX_POINT('',#660);
#324=VERTEX_POINT('',#663);
#325=VERTEX_POINT('',#666);
#326=VERTEX_POINT('',#669);
#327=VERTEX_POINT('',#672);
#328=VERTEX_POINT('',#675);
#329=VERTEX_POINT('',#678);
#330=VERTEX_POINT('',#681);
#331=VERTEX_POINT('',#684);
#332=VERTEX_POINT('',#687);
#333=VERTEX_POINT('',#690);
#334=VERTEX_POINT('',#693);
#335=VERTEX_POINT('',#696);
#336=VERTEX_POINT('',#699);
#337=VERTEX_POINT('',#702);
#338=VERTEX_POINT('',#705);
#339=VERTEX_POINT('',#708);
#340=VERTEX_POINT('',#711);
#341=VERTEX_POINT('',#714);
#342=VERTEX_POINT('',#717);
#343=VERTEX_POINT('',#720);
#344=VERTEX_POINT('',#723);
#345=VERTEX_POINT('',#726);
#346=VERTEX_POINT('',#729);
#347=VERTEX_POINT('',#732);
#348=VERTEX_POINT('',#735);
#349=VERTEX_POINT('',#738);
#350=VERTEX_POINT('',#741);
#351=EDGE_CURVE('',#316,#316,#386,.T.);
#352=EDGE_CURVE('',#317,#317,#387,.T.);
#353=EDGE_CURVE('',#318,#318,#388,.T.);
#354=EDGE_CURVE('',#319,#319,#389,.T.);
#355=EDGE_CURVE('',#320,#320,#390,.T.);
#356=EDGE_CURVE('',#321,#321,#391,.T.);
#357=EDGE_CURVE('',#322,#322,#392,.T.);
#358=EDGE_CURVE('',#323,#323,#393,.T.);
#359=EDGE_CURVE('',#324,#324,#394,.T.);
#360=EDGE_CURVE('',#325,#325,#395,.T.);
#361=EDGE_CURVE('',#326,#326,#396,.T.);
#362=EDGE_CURVE('',#327,#327,#397,.T.);
#363=EDGE_CURVE('',#328,#328,#398,.T.);
#364=EDGE_CURVE('',#329,#329,#399,.T.);
#365=EDGE_CURVE('',#330,#330,#400,.T.);
#366=EDGE_CURVE('',#331,#331,#401,.T.);
#367=EDGE_CURVE('',#332,#332,#402,.T.);
#368=EDGE_CURVE('',#333,#333,#403,.T.);
#369=EDGE_CURVE('',#334,#334,#404,.T.);
#370=EDGE_CURVE('',#335,#335,#405,.T.);
#371=EDGE_CURVE('',#336,#336,#406,.T.);
#372=EDGE_CURVE('',#337,#337,#407,.T.);
#373=EDGE_CURVE('',#338,#338,#408,.T.);
#374=EDGE_CURVE('',#339,#339,#409,.T.);
#375=EDGE_CURVE('',#340,#340,#410,.T.);
#376=EDGE_CURVE('',#341,#341,#411,.T.);
#377=EDGE_CURVE('',#342,#342,#412,.T.);
#378=EDGE_CURVE('',#343,#343,#413,.T.);
#379=EDGE_CURVE('',#344,#344,#414,.T.);
#380=EDGE_CURVE('',#345,#345,#415,.T.);
#381=EDGE_CURVE('',#346,#346,#416,.T.);
#382=EDGE_CURVE('',#347,#347,#417,.T.);
#383=EDGE_CURVE('',#348,#348,#418,.T.);
#384=EDGE_CURVE('',#349,#349,#419,.T.);
#385=EDGE_CURVE('',#350,#350,#420,.T.);
#386=CIRCLE('',#422,22.625);
#387=CIRCLE('',#424,23.625);
#388=CIRCLE('',#426,23.625);
#389=CIRCLE('',#428,22.625);
#390=CIRCLE('',#430,10.825);
#391=CIRCLE('',#432,8.325);
#392=CIRCLE('',#434,8.325);
#393=CIRCLE('',#436,9.52500000000005);
#394=CIRCLE('',#438,9.525);
#395=CIRCLE('',#440,10.0);
#396=CIRCLE('',#442,10.0);
#397=CIRCLE('',#444,10.4041451884327);
#398=CIRCLE('',#446,18.4636497308104);
#399=CIRCLE('',#448,19.041);
#400=CIRCLE('',#450,19.041);
#401=CIRCLE('',#452,18.5);
#402=CIRCLE('',#454,18.5);
#403=CIRCLE('',#456,19.041);
#404=CIRCLE('',#458,19.041);
#405=CIRCLE('',#460,20.741);
#406=CIRCLE('',#462,43.5);
#407=CIRCLE('',#464,43.5);
#408=CIRCLE('',#466,22.225);
#409=CIRCLE('',#468,22.225);
#410=CIRCLE('',#470,31.75);
#411=CIRCLE('',#472,31.75);
#412=CIRCLE('',#474,28.9741978045701);
#413=CIRCLE('',#476,28.0);
#414=CIRCLE('',#478,28.0);
#415=CIRCLE('',#480,31.75);
#416=CIRCLE('',#482,31.75);
#417=CIRCLE('',#484,24.1);
#418=CIRCLE('',#486,22.9803847577293);
#419=CIRCLE('',#488,22.4145850719192);
#420=CIRCLE('',#490,12.2717837242416);
#421=AXIS2_PLACEMENT_3D('',#637,#493,#494);
#422=AXIS2_PLACEMENT_3D('',#638,#495,#496);
#423=AXIS2_PLACEMENT_3D('',#640,#497,#498);
#424=AXIS2_PLACEMENT_3D('',#641,#499,#500);
#425=AXIS2_PLACEMENT_3D('',#643,#501,#502);
#426=AXIS2_PLACEMENT_3D('',#644,#503,#504);
#427=AXIS2_PLACEMENT_3D('',#646,#505,#506);
#428=AXIS2_PLACEMENT_3D('',#647,#507,#508);
#429=AXIS2_PLACEMENT_3D('',#649,#509,#510);
#430=AXIS2_PLACEMENT_3D('',#650,#511,#512);
#431=AXIS2_PLACEMENT_3D('',#652,#513,#514);
#432=AXIS2_PLACEMENT_3D('',#653,#515,#516);
#433=AXIS2_PLACEMENT_3D('',#655,#517,#518);
#434=AXIS2_PLACEMENT_3D('',#656,#519,#520);
#435=AXIS2_PLACEMENT_3D('',#658,#521,#522);
#436=AXIS2_PLACEMENT_3D('',#659,#523,#524);
#437=AXIS2_PLACEMENT_3D('',#661,#525,#526);
#438=AXIS2_PLACEMENT_3D('',#662,#527,#528);
#439=AXIS2_PLACEMENT_3D('',#664,#529,#530);
#440=AXIS2_PLACEMENT_3D('',#665,#531,#532);
#441=AXIS2_PLACEMENT_3D('',#667,#533,#534);
#442=AXIS2_PLACEMENT_3D('',#668,#535,#536);
#443=AXIS2_PLACEMENT_3D('',#670,#537,#538);
#444=AXIS2_PLACEMENT_3D('',#671,#539,#540);
#445=AXIS2_PLACEMENT_3D('',#673,#541,#542);
#446=AXIS2_PLACEMENT_3D('',#674,#543,#544);
#447=AXIS2_PLACEMENT_3D('',#676,#545,#546);
#448=AXIS2_PLACEMENT_3D('',#677,#547,#548);
#449=AXIS2_PLACEMENT_3D('',#679,#549,#550);
#450=AXIS2_PLACEMENT_3D('',#680,#551,#552);
#451=AXIS2_PLACEMENT_3D('',#682,#553,#554);
#452=AXIS2_PLACEMENT_3D('',#683,#555,#556);
#453=AXIS2_PLACEMENT_3D('',#685,#557,#558);
#454=AXIS2_PLACEMENT_3D('',#686,#559,#560);
#455=AXIS2_PLACEMENT_3D('',#688,#561,#562);
#456=AXIS2_PLACEMENT_3D('',#689,#563,#564);
#457=AXIS2_PLACEMENT_3D('',#691,#565,#566);
#458=AXIS2_PLACEMENT_3D('',#692,#567,#568);
#459=AXIS2_PLACEMENT_3D('',#694,#569,#570);
#460=AXIS2_PLACEMENT_3D('',#695,#571,#572);
#461=AXIS2_PLACEMENT_3D('',#697,#573,#574);
#462=AXIS2_PLACEMENT_3D('',#698,#575,#576);
#463=AXIS2_PLACEMENT_3D('',#700,#577,#578);
#464=AXIS2_PLACEMENT_3D('',#701,#579,#580);
#465=AXIS2_PLACEMENT_3D('',#703,#581,#582);
#466=AXIS2_PLACEMENT_3D('',#704,#583,#584);
#467=AXIS2_PLACEMENT_3D('',#706,#585,#586);
#468=AXIS2_PLACEMENT_3D('',#707,#587,#588);
#469=AXIS2_PLACEMENT_3D('',#709,#589,#590);
#470=AXIS2_PLACEMENT_3D('',#710,#591,#592);
#471=AXIS2_PLACEMENT_3D('',#712,#593,#594);
#472=AXIS2_PLACEMENT_3D('',#713,#595,#596);
#473=AXIS2_PLACEMENT_3D('',#715,#597,#598);
#474=AXIS2_PLACEMENT_3D('',#716,#599,#600);
#475=AXIS2_PLACEMENT_3D('',#718,#601,#602);
#476=AXIS2_PLACEMENT_3D('',#719,#603,#604);
#477=AXIS2_PLACEMENT_3D('',#721,#605,#606);
#478=AXIS2_PLACEMENT_3D('',#722,#607,#608);
#479=AXIS2_PLACEMENT_3D('',#724,#609,#610);
#480=AXIS2_PLACEMENT_3D('',#725,#611,#612);
#481=AXIS2_PLACEMENT_3D('',#727,#613,#614);
#482=AXIS2_PLACEMENT_3D('',#728,#615,#616);
#483=AXIS2_PLACEMENT_3D('',#730,#617,#618);
#484=AXIS2_PLACEMENT_3D('',#731,#619,#620);
#485=AXIS2_PLACEMENT_3D('',#733,#621,#622);
#486=AXIS2_PLACEMENT_3D('',#734,#623,#624);
#487=AXIS2_PLACEMENT_3D('',#736,#625,#626);
#488=AXIS2_PLACEMENT_3D('',#737,#627,#628);
#489=AXIS2_PLACEMENT_3D('',#739,#629,#630);
#490=AXIS2_PLACEMENT_3D('',#740,#631,#632);
#491=AXIS2_PLACEMENT_3D('',#742,#633,#634);
#492=AXIS2_PLACEMENT_3D('',#743,#635,#636);
#493=DIRECTION('',(0.0,0.0,1.0));
#494=DIRECTION('',(1.0,0.0,0.0));
#495=DIRECTION('',(0.0,0.0,1.0));
#496=DIRECTION('',(1.0,0.0,0.0));
#497=DIRECTION('',(0.0,0.0,1.0));
#498=DIRECTION('',(1.0,0.0,0.0));
#499=DIRECTION('',(0.0,0.0,1.0));
#500=DIRECTION('',(1.0,0.0,0.0));
#501=DIRECTION('',(0.0,0.0,1.0));
#502=DIRECTION('',(1.0,0.0,4.07122487944689E-17));
#503=DIRECTION('',(0.0,0.0,1.0));
#504=DIRECTION('',(1.0,0.0,0.0));
#505=DIRECTION('',(0.0,0.0,1.0));
#506=DIRECTION('',(1.0,0.0,0.0));
#507=DIRECTION('',(0.0,0.0,1.0));
#508=DIRECTION('',(1.0,0.0,0.0));
#509=DIRECTION('',(0.0,0.0,-1.0));
#510=DIRECTION('',(-1.0,0.0,-8.13449523476727E-17));
#511=DIRECTION('',(0.0,0.0,1.0));
#512=DIRECTION('',(1.0,0.0,0.0));
#513=DIRECTION('',(0.0,0.0,-1.0));
#514=DIRECTION('',(-1.0,0.0,0.0));
#515=DIRECTION('',(0.0,0.0,1.0));
#516=DIRECTION('',(1.0,0.0,0.0));
#517=DIRECTION('',(0.0,0.0,1.0));
#518=DIRECTION('',(1.0,0.0,0.0));
#519=DIRECTION('',(0.0,0.0,1.0));
#520=DIRECTION('',(1.0,0.0,0.0));
#521=DIRECTION('',(0.0,0.0,1.0));
#522=DIRECTION('',(1.0,0.0,0.0));
#523=DIRECTION('',(0.0,0.0,1.0));
#524=DIRECTION('',(1.0,0.0,0.0));
#525=DIRECTION('',(0.0,0.0,1.0));
#526=DIRECTION('',(1.0,0.0,7.10860874850471E-17));
#527=DIRECTION('',(0.0,0.0,1.0));
#528=DIRECTION('',(1.0,0.0,0.0));
#529=DIRECTION('',(0.0,0.0,1.0));
#530=DIRECTION('',(1.0,0.0,0.0));
#531=DIRECTION('',(0.0,0.0,1.0));
#532=DIRECTION('',(1.0,0.0,0.0));
#533=DIRECTION('',(0.0,0.0,-1.0));
#534=DIRECTION('',(-1.0,0.0,5.03365093548177E-18));
#535=DIRECTION('',(0.0,0.0,1.0));
#536=DIRECTION('',(1.0,0.0,0.0));
#537=DIRECTION('',(0.0,0.0,1.0));
#538=DIRECTION('',(1.0,0.0,0.0));
#539=DIRECTION('',(0.0,0.0,1.0));
#540=DIRECTION('',(1.0,0.0,0.0));
#541=DIRECTION('',(0.0,0.0,-1.0));
#542=DIRECTION('',(-1.0,0.0,-7.08833648461414E-17));
#543=DIRECTION('',(0.0,0.0,1.0));
#544=DIRECTION('',(1.0,0.0,0.0));
#545=DIRECTION('',(0.0,0.0,1.0));
#546=DIRECTION('',(1.0,0.0,0.0));
#547=DIRECTION('',(0.0,0.0,1.0));
#548=DIRECTION('',(1.0,0.0,0.0));
#549=DIRECTION('',(0.0,0.0,1.0));
#550=DIRECTION('',(1.0,0.0,6.98764532035118E-17));
#551=DIRECTION('',(0.0,0.0,1.0));
#552=DIRECTION('',(1.0,0.0,0.0));
#553=DIRECTION('',(0.0,0.0,1.0));
#554=DIRECTION('',(1.0,0.0,0.0));
#555=DIRECTION('',(0.0,0.0,1.0));
#556=DIRECTION('',(1.0,0.0,0.0));
#557=DIRECTION('',(0.0,0.0,-1.0));
#558=DIRECTION('',(-1.0,0.0,-1.16348012829497E-16));
#559=DIRECTION('',(0.0,0.0,1.0));
#560=DIRECTION('',(1.0,0.0,0.0));
#561=DIRECTION('',(0.0,0.0,1.0));
#562=DIRECTION('',(1.0,0.0,0.0));
#563=DIRECTION('',(0.0,0.0,1.0));
#564=DIRECTION('',(1.0,0.0,0.0));
#565=DIRECTION('',(0.0,0.0,1.0));
#566=DIRECTION('',(1.0,0.0,-6.98721903408179E-17));
#567=DIRECTION('',(0.0,0.0,1.0));
#568=DIRECTION('',(1.0,0.0,0.0));
#569=DIRECTION('',(0.0,0.0,1.0));
#570=DIRECTION('',(1.0,0.0,0.0));
#571=DIRECTION('',(0.0,0.0,1.0));
#572=DIRECTION('',(1.0,0.0,0.0));
#573=DIRECTION('',(0.0,0.0,-1.0));
#574=DIRECTION('',(-1.0,0.0,-7.3993325248994E-18));
#575=DIRECTION('',(0.0,0.0,1.0));
#576=DIRECTION('',(1.0,0.0,0.0));
#577=DIRECTION('',(0.0,0.0,1.0));
#578=DIRECTION('',(1.0,0.0,0.0));
#579=DIRECTION('',(0.0,0.0,1.0));
#580=DIRECTION('',(1.0,0.0,0.0));
#581=DIRECTION('',(0.0,0.0,1.0));
#582=DIRECTION('',(1.0,0.0,0.0));
#583=DIRECTION('',(0.0,0.0,1.0));
#584=DIRECTION('',(1.0,0.0,0.0));
#585=DIRECTION('',(0.0,0.0,-1.0));
#586=DIRECTION('',(-1.0,0.0,0.0));
#587=DIRECTION('',(0.0,0.0,1.0));
#588=DIRECTION('',(1.0,0.0,0.0));
#589=DIRECTION('',(0.0,0.0,1.0));
#590=DIRECTION('',(1.0,0.0,0.0));
#591=DIRECTION('',(0.0,0.0,1.0));
#592=DIRECTION('',(1.0,0.0,0.0));
#593=DIRECTION('',(0.0,0.0,1.0));
#594=DIRECTION('',(1.0,0.0,0.0));
#595=DIRECTION('',(0.0,0.0,1.0));
#596=DIRECTION('',(1.0,0.0,0.0));
#597=DIRECTION('',(0.0,0.0,1.0));
#598=DIRECTION('',(1.0,0.0,0.0));
#599=DIRECTION('',(0.0,0.0,1.0));
#600=DIRECTION('',(1.0,0.0,0.0));
#601=DIRECTION('',(0.0,0.0,-1.0));
#602=DIRECTION('',(-1.0,0.0,-4.03240900048582E-17));
#603=DIRECTION('',(0.0,0.0,1.0));
#604=DIRECTION('',(1.0,0.0,0.0));
#605=DIRECTION('',(0.0,0.0,-1.0));
#606=DIRECTION('',(-1.0,0.0,0.0));
#607=DIRECTION('',(0.0,0.0,1.0));
#608=DIRECTION('',(1.0,0.0,0.0));
#609=DIRECTION('',(0.0,0.0,1.0));
#610=DIRECTION('',(1.0,0.0,0.0));
#611=DIRECTION('',(0.0,0.0,1.0));
#612=DIRECTION('',(1.0,0.0,0.0));
#613=DIRECTION('',(0.0,0.0,1.0));
#614=DIRECTION('',(1.0,0.0,0.0));
#615=DIRECTION('',(0.0,0.0,1.0));
#616=DIRECTION('',(1.0,0.0,0.0));
#617=DIRECTION('',(0.0,0.0,1.0));
#618=DIRECTION('',(1.0,0.0,0.0));
#619=DIRECTION('',(0.0,0.0,1.0));
#620=DIRECTION('',(1.0,0.0,0.0));
#621=DIRECTION('',(0.0,0.0,-1.0));
#622=DIRECTION('',(-1.0,0.0,0.0));
#623=DIRECTION('',(0.0,0.0,1.0));
#624=DIRECTION('',(1.0,0.0,0.0));
#625=DIRECTION('',(0.0,0.0,1.0));
#626=DIRECTION('',(1.0,0.0,-2.30917708692788E-19));
#627=DIRECTION('',(0.0,0.0,1.0));
#628=DIRECTION('',(1.0,0.0,0.0));
#629=DIRECTION('',(0.0,0.0,-1.0));
#630=DIRECTION('',(-1.0,0.0,0.0));
#631=DIRECTION('',(0.0,0.0,1.0));
#632=DIRECTION('',(1.0,0.0,0.0));
#633=DIRECTION('',(0.0,0.0,-1.0));
#634=DIRECTION('',(-1.0,0.0,-5.25832324578154E-16));
#635=DIRECTION('',(0.0,0.0,-1.0));
#636=DIRECTION('',(-1.0,0.0,0.0));
#637=CARTESIAN_POINT('',(0.0,0.0,0.0));
#638=CARTESIAN_POINT('',(0.0,0.0,-102.0));
#639=CARTESIAN_POINT('',(22.625,0.0,-102.0));
#640=CARTESIAN_POINT('',(0.0,0.0,-102.0));
#641=CARTESIAN_POINT('',(0.0,0.0,-101.0));
#642=CARTESIAN_POINT('',(23.625,0.0,-101.0));
#643=CARTESIAN_POINT('',(0.0,0.0,-102.0));
#644=CARTESIAN_POINT('',(0.0,0.0,-90.0));
#645=CARTESIAN_POINT('',(23.625,0.0,-90.0));
#646=CARTESIAN_POINT('',(0.0,0.0,0.0));
#647=CARTESIAN_POINT('',(0.0,0.0,-89.0));
#648=CARTESIAN_POINT('',(22.625,0.0,-89.0));
#649=CARTESIAN_POINT('',(0.0,0.0,-90.0));
#650=CARTESIAN_POINT('',(0.0,0.0,-89.0));
#651=CARTESIAN_POINT('',(10.825,0.0,-89.0));
#652=CARTESIAN_POINT('',(0.0,22.625,-89.0));
#653=CARTESIAN_POINT('',(0.0,0.0,-86.5));
#654=CARTESIAN_POINT('',(8.325,0.0,-86.5));
#655=CARTESIAN_POINT('',(0.0,0.0,-86.5));
#656=CARTESIAN_POINT('',(0.0,0.0,-85.0));
#657=CARTESIAN_POINT('',(8.325,0.0,-85.0));
#658=CARTESIAN_POINT('',(0.0,0.0,0.0));
#659=CARTESIAN_POINT('',(0.0,0.0,-82.9215390309173));
#660=CARTESIAN_POINT('',(9.52500000000005,0.0,-82.9215390309173));
#661=CARTESIAN_POINT('',(0.0,0.0,-85.0));
#662=CARTESIAN_POINT('',(0.0,0.0,-79.3271141387235));
#663=CARTESIAN_POINT('',(9.525,0.0,-79.3271141387235));
#664=CARTESIAN_POINT('',(0.0,0.0,0.0));
#665=CARTESIAN_POINT('',(0.0,0.0,-79.5));
#666=CARTESIAN_POINT('',(10.0,0.0,-79.5));
#667=CARTESIAN_POINT('',(0.0,0.0,-79.3271141387235));
#668=CARTESIAN_POINT('',(0.0,0.0,-82.3));
#669=CARTESIAN_POINT('',(10.0,0.0,-82.3));
#670=CARTESIAN_POINT('',(0.0,0.0,0.0));
#671=CARTESIAN_POINT('',(0.0,0.0,-83.0));
#672=CARTESIAN_POINT('',(10.4041451884327,0.0,-83.0));
#673=CARTESIAN_POINT('',(0.0,0.0,-82.3));
#674=CARTESIAN_POINT('',(0.0,0.0,-83.0));
#675=CARTESIAN_POINT('',(18.4636497308104,0.0,-83.0));
#676=CARTESIAN_POINT('',(0.0,10.4041451884327,-83.0));
#677=CARTESIAN_POINT('',(0.0,0.0,-82.0));
#678=CARTESIAN_POINT('',(19.041,0.0,-82.0));
#679=CARTESIAN_POINT('',(0.0,0.0,-83.0));
#680=CARTESIAN_POINT('',(0.0,0.0,-81.1370394868948));
#681=CARTESIAN_POINT('',(19.041,0.0,-81.1370394868948));
#682=CARTESIAN_POINT('',(0.0,0.0,0.0));
#683=CARTESIAN_POINT('',(0.0,0.0,-80.2));
#684=CARTESIAN_POINT('',(18.5,0.0,-80.2));
#685=CARTESIAN_POINT('',(0.0,0.0,-81.1370394868948));
#686=CARTESIAN_POINT('',(0.0,0.0,-77.2));
#687=CARTESIAN_POINT('',(18.5,0.0,-77.2));
#688=CARTESIAN_POINT('',(0.0,0.0,0.0));
#689=CARTESIAN_POINT('',(0.0,0.0,-76.2629605131052));
#690=CARTESIAN_POINT('',(19.041,0.0,-76.2629605131052));
#691=CARTESIAN_POINT('',(0.0,0.0,-77.2));
#692=CARTESIAN_POINT('',(0.0,0.0,-59.5444863728671));
#693=CARTESIAN_POINT('',(19.041,0.0,-59.5444863728671));
#694=CARTESIAN_POINT('',(0.0,0.0,0.0));
#695=CARTESIAN_POINT('',(0.0,0.0,-60.0));
#696=CARTESIAN_POINT('',(20.741,0.0,-60.0));
#697=CARTESIAN_POINT('',(0.0,0.0,-59.5444863728671));
#698=CARTESIAN_POINT('',(0.0,0.0,-60.0));
#699=CARTESIAN_POINT('',(43.5,0.0,-60.0));
#700=CARTESIAN_POINT('',(0.0,20.741,-60.0));
#701=CARTESIAN_POINT('',(0.0,0.0,-35.25));
#702=CARTESIAN_POINT('',(43.5,0.0,-35.25));
#703=CARTESIAN_POINT('',(0.0,0.0,0.0));
#704=CARTESIAN_POINT('',(0.0,0.0,-35.25));
#705=CARTESIAN_POINT('',(22.225,0.0,-35.25));
#706=CARTESIAN_POINT('',(0.0,43.5,-35.25));
#707=CARTESIAN_POINT('',(0.0,0.0,-19.05));
#708=CARTESIAN_POINT('',(22.225,0.0,-19.05));
#709=CARTESIAN_POINT('',(0.0,0.0,0.0));
#710=CARTESIAN_POINT('',(0.0,0.0,-19.05));
#711=CARTESIAN_POINT('',(31.75,0.0,-19.05));
#712=CARTESIAN_POINT('',(0.0,22.225,-19.05));
#713=CARTESIAN_POINT('',(0.0,0.0,-14.6276101447486));
#714=CARTESIAN_POINT('',(31.75,0.0,-14.6276101447486));
#715=CARTESIAN_POINT('',(0.0,0.0,0.0));
#716=CARTESIAN_POINT('',(0.0,0.0,-13.025));
#717=CARTESIAN_POINT('',(28.9741978045701,0.0,-13.025));
#718=CARTESIAN_POINT('',(0.0,0.0,-14.6276101447486));
#719=CARTESIAN_POINT('',(0.0,0.0,-13.025));
#720=CARTESIAN_POINT('',(28.0,0.0,-13.025));
#721=CARTESIAN_POINT('',(0.0,28.9741978045701,-13.025));
#722=CARTESIAN_POINT('',(0.0,0.0,-9.175));
#723=CARTESIAN_POINT('',(28.0,0.0,-9.175));
#724=CARTESIAN_POINT('',(0.0,0.0,0.0));
#725=CARTESIAN_POINT('',(0.0,0.0,-9.175));
#726=CARTESIAN_POINT('',(31.75,0.0,-9.175));
#727=CARTESIAN_POINT('',(0.0,28.0,-9.175));
#728=CARTESIAN_POINT('',(0.0,0.0,-1.0));
#729=CARTESIAN_POINT('',(31.75,0.0,-1.0));
#730=CARTESIAN_POINT('',(0.0,0.0,0.0));
#731=CARTESIAN_POINT('',(0.0,0.0,-1.0));
#732=CARTESIAN_POINT('',(24.1,0.0,-1.0));
#733=CARTESIAN_POINT('',(0.0,31.75,-1.0));
#734=CARTESIAN_POINT('',(0.0,0.0,-1.3));
#735=CARTESIAN_POINT('',(22.9803847577293,0.0,-1.3));
#736=CARTESIAN_POINT('',(0.0,0.0,-1.0));
#737=CARTESIAN_POINT('',(0.0,0.0,-1.29999999999999));
#738=CARTESIAN_POINT('',(22.4145850719192,0.0,-1.29999999999999));
#739=CARTESIAN_POINT('',(0.0,22.9803847577293,-1.3));
#740=CARTESIAN_POINT('',(0.0,0.0,68.25));
#741=CARTESIAN_POINT('',(12.2717837242416,0.0,68.25));
#742=CARTESIAN_POINT('',(0.0,0.0,-1.29999999999999));
#743=CARTESIAN_POINT('',(0.0,8.24,68.25));
#744=MECHANICAL_DESIGN_GEOMETRIC_PRESENTATION_REPRESENTATION('',(#24),#745);
#745=(GEOMETRIC_REPRESENTATION_CONTEXT(3)GLOBAL_UNCERTAINTY_ASSIGNED_CONTEXT((#746))
     GLOBAL_UNIT_ASSIGNED_CONTEXT((#752,#748,#747))REPRESENTATION_CONTEXT('A392',
     'TOP_LEVEL_ASSEMBLY_PART'));
#746=UNCERTAINTY_MEASURE_WITH_UNIT(LENGTH_MEASURE(2.0E-5),#752,'DISTANCE_ACCURACY_VALUE',
     'Maximum Tolerance applied to model');
#747=(NAMED_UNIT(*)SI_UNIT($,.STERADIAN.)SOLID_ANGLE_UNIT());
#748=(CONVERSION_BASED_UNIT('DEGREE',#750)NAMED_UNIT(*)PLANE_ANGLE_UNIT());
#749=DIMENSIONAL_EXPONENTS(0.0,0.0,0.0,0.0,0.0,0.0,0.0);
#750=PLANE_ANGLE_MEASURE_WITH_UNIT(PLANE_ANGLE_MEASURE(0.0174532925),#751);
#751=(NAMED_UNIT(*)PLANE_ANGLE_UNIT()SI_UNIT($,.RADIAN.));
#752=(LENGTH_UNIT()NAMED_UNIT(*)SI_UNIT(.MILLI.,.METRE.));
#753=CARTESIAN_POINT('',(0.0,0.0,0.0));
#754=DIRECTION('',(0.0,0.0,1.0));
#755=DIRECTION('',(1.0,0.0,0.0));
#756=AXIS2_PLACEMENT_3D('PCS',#753,#754,#755);
#757=CARTESIAN_POINT('',(0.0,0.0,0.0));
#758=DIRECTION('',(0.0,0.0,1.0));
#759=DIRECTION('',(1.0,0.0,0.0));
#760=AXIS2_PLACEMENT_3D('MCS',#757,#758,#759);
#761=CARTESIAN_POINT('',(0.0,0.0,-60.0));
#762=DIRECTION('',(0.0,0.0,1.0));
#763=DIRECTION('',(1.0,0.0,0.0));
#764=AXIS2_PLACEMENT_3D('CSW',#761,#762,#763);
#765=CONSTRUCTIVE_GEOMETRY_REPRESENTATION('supplemental geometry',(#756,#760,#764),
     #745);
#766=CONSTRUCTIVE_GEOMETRY_REPRESENTATION_RELATIONSHIP('supplemental geometry',$,
     #22,#765);
ENDSEC;
END-ISO-10303-21;
