ISO-10303-21;
HEADER;
FILE_DESCRIPTION(
/* description */ ('3-D model version:1'),
/* implementation_level */ '2;1');
FILE_NAME(
/* name */ 'A208-3022047',
/* time_stamp */ '2016-12-02T13:58:53',
/* author */ ('InteractiveCad'),
/* organization */ ('AB Sandvik Coromant'),
/* preprocessor_version */ 'ST-DEVELOPER v11',
/* originating_system */ 'SIEMENS UGS NX 6.0',
/* authorization */ '');
FILE_SCHEMA(('AUTOMOTIVE_DESIGN'));
ENDSEC;
DATA;
#10=SHAPE_REPRESENTATION_RELATIONSHIP('None','relationship between ds680A14x9v3-None and ds680A14x9v3-None',
     #22,#11);
#11=ADVANCED_BREP_SHAPE_REPRESENTATION('ds680A14x9v3-None',(#28,#328),#574);
#12=SHAPE_DEFINITION_REPRESENTATION(#13,#22);
#13=PRODUCT_DEFINITION_SHAPE('','',#14);
#14=PRODUCT_DEFINITION(' ','',#16,#15);
#15=PRODUCT_DEFINITION_CONTEXT('part definition',#21,'design');
#16=PRODUCT_DEFINITION_FORMATION_WITH_SPECIFIED_SOURCE(' ',' ',#18,.NOT_KNOWN.);
#17=PRODUCT_RELATED_PRODUCT_CATEGORY('part','',(#18));
#18=PRODUCT('ds680A14x9v3','ds680A14x9v3',' ',(#19));
#19=PRODUCT_CONTEXT(' ',#21,'mechanical');
#20=APPLICATION_PROTOCOL_DEFINITION('international standard','automotive_design',
     2001,#21);
#21=APPLICATION_CONTEXT('core data for automotive mechanical design processes');
#22=SHAPE_REPRESENTATION('ds680A14x9v3-None',(#327),#574);
#23=SURFACE_STYLE_USAGE(.BOTH.,#24);
#24=SURFACE_SIDE_STYLE('',(#25));
#25=SURFACE_STYLE_FILL_AREA(#26);
#26=FILL_AREA_STYLE('',(#27));
#27=FILL_AREA_STYLE_COLOUR('',#325);
#28=MANIFOLD_SOLID_BREP('NOCUT',#29);
#29=CLOSED_SHELL('',(#54,#55,#56,#57,#58,#59,#60,#61,#62,#63,#64,#65,#66,#67,#68,
     #69,#70,#71,#72,#73,#74,#75,#76,#77,#78,#79,#80));
#30=CYLINDRICAL_SURFACE('',#340,11.0);
#31=CYLINDRICAL_SURFACE('',#344,13.0);
#32=CYLINDRICAL_SURFACE('',#348,20.0);
#33=CYLINDRICAL_SURFACE('',#356,22.99);
#34=CYLINDRICAL_SURFACE('',#364,18.875);
#35=CYLINDRICAL_SURFACE('',#372,22.9899999999996);
#36=CYLINDRICAL_SURFACE('',#380,15.375);
#37=PLANE('',#334);
#38=PLANE('',#336);
#39=PLANE('',#342);
#40=PLANE('',#346);
#41=PLANE('',#352);
#42=PLANE('',#360);
#43=PLANE('',#368);
#44=PLANE('',#376);
#45=FACE_OUTER_BOUND('',#140,.T.);
#46=FACE_OUTER_BOUND('',#141,.T.);
#47=TOROIDAL_SURFACE('',#333,8.38371142163899,0.5);
#48=TOROIDAL_SURFACE('',#350,21.0,1.0);
#49=TOROIDAL_SURFACE('',#354,21.99,1.0);
#50=TOROIDAL_SURFACE('',#362,19.625,0.75);
#51=TOROIDAL_SURFACE('',#366,19.625,0.75);
#52=TOROIDAL_SURFACE('',#374,21.99,1.0);
#53=TOROIDAL_SURFACE('',#378,16.375,1.0);
#54=ADVANCED_FACE('',(#86,#87),#81,.T.);
#55=ADVANCED_FACE('',(#88,#89),#47,.T.);
#56=ADVANCED_FACE('',(#45),#37,.F.);
#57=ADVANCED_FACE('',(#46),#38,.F.);
#58=ADVANCED_FACE('',(#90,#91),#82,.T.);
#59=ADVANCED_FACE('',(#92,#93),#30,.T.);
#60=ADVANCED_FACE('',(#94,#95),#39,.F.);
#61=ADVANCED_FACE('',(#96,#97),#31,.F.);
#62=ADVANCED_FACE('',(#98,#99),#40,.F.);
#63=ADVANCED_FACE('',(#100,#101),#32,.T.);
#64=ADVANCED_FACE('',(#102,#103),#48,.F.);
#65=ADVANCED_FACE('',(#104,#105),#41,.F.);
#66=ADVANCED_FACE('',(#106,#107),#49,.T.);
#67=ADVANCED_FACE('',(#108,#109),#33,.T.);
#68=ADVANCED_FACE('',(#110,#111),#83,.T.);
#69=ADVANCED_FACE('',(#112,#113),#42,.F.);
#70=ADVANCED_FACE('',(#114,#115),#50,.F.);
#71=ADVANCED_FACE('',(#116,#117),#34,.T.);
#72=ADVANCED_FACE('',(#118,#119),#51,.F.);
#73=ADVANCED_FACE('',(#120,#121),#43,.F.);
#74=ADVANCED_FACE('',(#122,#123),#84,.T.);
#75=ADVANCED_FACE('',(#124,#125),#35,.T.);
#76=ADVANCED_FACE('',(#126,#127),#52,.T.);
#77=ADVANCED_FACE('',(#128,#129),#44,.F.);
#78=ADVANCED_FACE('',(#130,#131),#53,.F.);
#79=ADVANCED_FACE('',(#132,#133),#36,.T.);
#80=ADVANCED_FACE('',(#134,#135),#85,.T.);
#81=CONICAL_SURFACE('',#331,15.6373840620927,8.29782682820557);
#82=CONICAL_SURFACE('',#338,10.0,44.9999999999998);
#83=CONICAL_SURFACE('',#358,22.99,59.9999999999867);
#84=CONICAL_SURFACE('',#370,19.67905352042,59.9999999999868);
#85=CONICAL_SURFACE('',#381,15.375,14.9999999999984);
#86=FACE_BOUND('',#136,.T.);
#87=FACE_BOUND('',#137,.T.);
#88=FACE_BOUND('',#138,.T.);
#89=FACE_BOUND('',#139,.T.);
#90=FACE_BOUND('',#142,.T.);
#91=FACE_BOUND('',#143,.T.);
#92=FACE_BOUND('',#144,.T.);
#93=FACE_BOUND('',#145,.T.);
#94=FACE_BOUND('',#146,.T.);
#95=FACE_BOUND('',#147,.T.);
#96=FACE_BOUND('',#148,.T.);
#97=FACE_BOUND('',#149,.T.);
#98=FACE_BOUND('',#150,.T.);
#99=FACE_BOUND('',#151,.T.);
#100=FACE_BOUND('',#152,.T.);
#101=FACE_BOUND('',#153,.T.);
#102=FACE_BOUND('',#154,.T.);
#103=FACE_BOUND('',#155,.T.);
#104=FACE_BOUND('',#156,.T.);
#105=FACE_BOUND('',#157,.T.);
#106=FACE_BOUND('',#158,.T.);
#107=FACE_BOUND('',#159,.T.);
#108=FACE_BOUND('',#160,.T.);
#109=FACE_BOUND('',#161,.T.);
#110=FACE_BOUND('',#162,.T.);
#111=FACE_BOUND('',#163,.T.);
#112=FACE_BOUND('',#164,.T.);
#113=FACE_BOUND('',#165,.T.);
#114=FACE_BOUND('',#166,.T.);
#115=FACE_BOUND('',#167,.T.);
#116=FACE_BOUND('',#168,.T.);
#117=FACE_BOUND('',#169,.T.);
#118=FACE_BOUND('',#170,.T.);
#119=FACE_BOUND('',#171,.T.);
#120=FACE_BOUND('',#172,.T.);
#121=FACE_BOUND('',#173,.T.);
#122=FACE_BOUND('',#174,.T.);
#123=FACE_BOUND('',#175,.T.);
#124=FACE_BOUND('',#176,.T.);
#125=FACE_BOUND('',#177,.T.);
#126=FACE_BOUND('',#178,.T.);
#127=FACE_BOUND('',#179,.T.);
#128=FACE_BOUND('',#180,.T.);
#129=FACE_BOUND('',#181,.T.);
#130=FACE_BOUND('',#182,.T.);
#131=FACE_BOUND('',#183,.T.);
#132=FACE_BOUND('',#184,.T.);
#133=FACE_BOUND('',#185,.T.);
#134=FACE_BOUND('',#186,.T.);
#135=FACE_BOUND('',#187,.T.);
#136=EDGE_LOOP('',(#188));
#137=EDGE_LOOP('',(#189));
#138=EDGE_LOOP('',(#190));
#139=EDGE_LOOP('',(#191));
#140=EDGE_LOOP('',(#192));
#141=EDGE_LOOP('',(#193));
#142=EDGE_LOOP('',(#194));
#143=EDGE_LOOP('',(#195));
#144=EDGE_LOOP('',(#196));
#145=EDGE_LOOP('',(#197));
#146=EDGE_LOOP('',(#198));
#147=EDGE_LOOP('',(#199));
#148=EDGE_LOOP('',(#200));
#149=EDGE_LOOP('',(#201));
#150=EDGE_LOOP('',(#202));
#151=EDGE_LOOP('',(#203));
#152=EDGE_LOOP('',(#204));
#153=EDGE_LOOP('',(#205));
#154=EDGE_LOOP('',(#206));
#155=EDGE_LOOP('',(#207));
#156=EDGE_LOOP('',(#208));
#157=EDGE_LOOP('',(#209));
#158=EDGE_LOOP('',(#210));
#159=EDGE_LOOP('',(#211));
#160=EDGE_LOOP('',(#212));
#161=EDGE_LOOP('',(#213));
#162=EDGE_LOOP('',(#214));
#163=EDGE_LOOP('',(#215));
#164=EDGE_LOOP('',(#216));
#165=EDGE_LOOP('',(#217));
#166=EDGE_LOOP('',(#218));
#167=EDGE_LOOP('',(#219));
#168=EDGE_LOOP('',(#220));
#169=EDGE_LOOP('',(#221));
#170=EDGE_LOOP('',(#222));
#171=EDGE_LOOP('',(#223));
#172=EDGE_LOOP('',(#224));
#173=EDGE_LOOP('',(#225));
#174=EDGE_LOOP('',(#226));
#175=EDGE_LOOP('',(#227));
#176=EDGE_LOOP('',(#228));
#177=EDGE_LOOP('',(#229));
#178=EDGE_LOOP('',(#230));
#179=EDGE_LOOP('',(#231));
#180=EDGE_LOOP('',(#232));
#181=EDGE_LOOP('',(#233));
#182=EDGE_LOOP('',(#234));
#183=EDGE_LOOP('',(#235));
#184=EDGE_LOOP('',(#236));
#185=EDGE_LOOP('',(#237));
#186=EDGE_LOOP('',(#238));
#187=EDGE_LOOP('',(#239));
#188=ORIENTED_EDGE('',*,*,#266,.F.);
#189=ORIENTED_EDGE('',*,*,#267,.T.);
#190=ORIENTED_EDGE('',*,*,#268,.F.);
#191=ORIENTED_EDGE('',*,*,#266,.T.);
#192=ORIENTED_EDGE('',*,*,#268,.T.);
#193=ORIENTED_EDGE('',*,*,#269,.F.);
#194=ORIENTED_EDGE('',*,*,#270,.F.);
#195=ORIENTED_EDGE('',*,*,#269,.T.);
#196=ORIENTED_EDGE('',*,*,#271,.F.);
#197=ORIENTED_EDGE('',*,*,#270,.T.);
#198=ORIENTED_EDGE('',*,*,#272,.F.);
#199=ORIENTED_EDGE('',*,*,#271,.T.);
#200=ORIENTED_EDGE('',*,*,#273,.F.);
#201=ORIENTED_EDGE('',*,*,#272,.T.);
#202=ORIENTED_EDGE('',*,*,#274,.F.);
#203=ORIENTED_EDGE('',*,*,#273,.T.);
#204=ORIENTED_EDGE('',*,*,#275,.F.);
#205=ORIENTED_EDGE('',*,*,#274,.T.);
#206=ORIENTED_EDGE('',*,*,#276,.F.);
#207=ORIENTED_EDGE('',*,*,#275,.T.);
#208=ORIENTED_EDGE('',*,*,#277,.F.);
#209=ORIENTED_EDGE('',*,*,#276,.T.);
#210=ORIENTED_EDGE('',*,*,#278,.F.);
#211=ORIENTED_EDGE('',*,*,#277,.T.);
#212=ORIENTED_EDGE('',*,*,#279,.F.);
#213=ORIENTED_EDGE('',*,*,#278,.T.);
#214=ORIENTED_EDGE('',*,*,#280,.F.);
#215=ORIENTED_EDGE('',*,*,#279,.T.);
#216=ORIENTED_EDGE('',*,*,#281,.F.);
#217=ORIENTED_EDGE('',*,*,#280,.T.);
#218=ORIENTED_EDGE('',*,*,#282,.F.);
#219=ORIENTED_EDGE('',*,*,#281,.T.);
#220=ORIENTED_EDGE('',*,*,#283,.F.);
#221=ORIENTED_EDGE('',*,*,#282,.T.);
#222=ORIENTED_EDGE('',*,*,#284,.F.);
#223=ORIENTED_EDGE('',*,*,#283,.T.);
#224=ORIENTED_EDGE('',*,*,#285,.F.);
#225=ORIENTED_EDGE('',*,*,#284,.T.);
#226=ORIENTED_EDGE('',*,*,#286,.F.);
#227=ORIENTED_EDGE('',*,*,#285,.T.);
#228=ORIENTED_EDGE('',*,*,#287,.F.);
#229=ORIENTED_EDGE('',*,*,#286,.T.);
#230=ORIENTED_EDGE('',*,*,#288,.F.);
#231=ORIENTED_EDGE('',*,*,#287,.T.);
#232=ORIENTED_EDGE('',*,*,#289,.F.);
#233=ORIENTED_EDGE('',*,*,#288,.T.);
#234=ORIENTED_EDGE('',*,*,#290,.F.);
#235=ORIENTED_EDGE('',*,*,#289,.T.);
#236=ORIENTED_EDGE('',*,*,#291,.F.);
#237=ORIENTED_EDGE('',*,*,#290,.T.);
#238=ORIENTED_EDGE('',*,*,#267,.F.);
#239=ORIENTED_EDGE('',*,*,#291,.T.);
#240=VERTEX_POINT('',#495);
#241=VERTEX_POINT('',#497);
#242=VERTEX_POINT('',#500);
#243=VERTEX_POINT('',#504);
#244=VERTEX_POINT('',#507);
#245=VERTEX_POINT('',#510);
#246=VERTEX_POINT('',#513);
#247=VERTEX_POINT('',#516);
#248=VERTEX_POINT('',#519);
#249=VERTEX_POINT('',#522);
#250=VERTEX_POINT('',#525);
#251=VERTEX_POINT('',#528);
#252=VERTEX_POINT('',#531);
#253=VERTEX_POINT('',#534);
#254=VERTEX_POINT('',#537);
#255=VERTEX_POINT('',#540);
#256=VERTEX_POINT('',#543);
#257=VERTEX_POINT('',#546);
#258=VERTEX_POINT('',#549);
#259=VERTEX_POINT('',#552);
#260=VERTEX_POINT('',#555);
#261=VERTEX_POINT('',#558);
#262=VERTEX_POINT('',#561);
#263=VERTEX_POINT('',#564);
#264=VERTEX_POINT('',#567);
#265=VERTEX_POINT('',#570);
#266=EDGE_CURVE('',#240,#240,#292,.T.);
#267=EDGE_CURVE('',#241,#241,#293,.T.);
#268=EDGE_CURVE('',#242,#242,#294,.T.);
#269=EDGE_CURVE('',#243,#243,#295,.T.);
#270=EDGE_CURVE('',#244,#244,#296,.T.);
#271=EDGE_CURVE('',#245,#245,#297,.T.);
#272=EDGE_CURVE('',#246,#246,#298,.T.);
#273=EDGE_CURVE('',#247,#247,#299,.T.);
#274=EDGE_CURVE('',#248,#248,#300,.T.);
#275=EDGE_CURVE('',#249,#249,#301,.T.);
#276=EDGE_CURVE('',#250,#250,#302,.T.);
#277=EDGE_CURVE('',#251,#251,#303,.T.);
#278=EDGE_CURVE('',#252,#252,#304,.T.);
#279=EDGE_CURVE('',#253,#253,#305,.T.);
#280=EDGE_CURVE('',#254,#254,#306,.T.);
#281=EDGE_CURVE('',#255,#255,#307,.T.);
#282=EDGE_CURVE('',#256,#256,#308,.T.);
#283=EDGE_CURVE('',#257,#257,#309,.T.);
#284=EDGE_CURVE('',#258,#258,#310,.T.);
#285=EDGE_CURVE('',#259,#259,#311,.T.);
#286=EDGE_CURVE('',#260,#260,#312,.T.);
#287=EDGE_CURVE('',#261,#261,#313,.T.);
#288=EDGE_CURVE('',#262,#262,#314,.T.);
#289=EDGE_CURVE('',#263,#263,#315,.T.);
#290=EDGE_CURVE('',#264,#264,#316,.T.);
#291=EDGE_CURVE('',#265,#265,#317,.T.);
#292=CIRCLE('',#329,8.87847705346031);
#293=CIRCLE('',#330,15.6373840620927);
#294=CIRCLE('',#332,8.383711421639);
#295=CIRCLE('',#335,10.0);
#296=CIRCLE('',#337,11.0);
#297=CIRCLE('',#339,11.0);
#298=CIRCLE('',#341,13.0);
#299=CIRCLE('',#343,13.0);
#300=CIRCLE('',#345,20.0);
#301=CIRCLE('',#347,20.0);
#302=CIRCLE('',#349,21.0);
#303=CIRCLE('',#351,21.99);
#304=CIRCLE('',#353,22.99);
#305=CIRCLE('',#355,22.99);
#306=CIRCLE('',#357,19.6790535204196);
#307=CIRCLE('',#359,19.625);
#308=CIRCLE('',#361,18.875);
#309=CIRCLE('',#363,18.875);
#310=CIRCLE('',#365,19.625);
#311=CIRCLE('',#367,19.67905352042);
#312=CIRCLE('',#369,22.9899999999991);
#313=CIRCLE('',#371,22.99);
#314=CIRCLE('',#373,21.99);
#315=CIRCLE('',#375,16.375);
#316=CIRCLE('',#377,15.375);
#317=CIRCLE('',#379,15.375);
#318=PRESENTATION_LAYER_ASSIGNMENT('1','Layer 1',(#328,#28));
#319=STYLED_ITEM('',(#321),#328);
#320=STYLED_ITEM('',(#322),#28);
#321=PRESENTATION_STYLE_ASSIGNMENT((#323));
#322=PRESENTATION_STYLE_ASSIGNMENT((#23));
#323=CURVE_STYLE('',#326,POSITIVE_LENGTH_MEASURE(0.176388888888889),#324);
#324=COLOUR_RGB('Deep Blue',0.0,0.0,0.752941176470588);
#325=COLOUR_RGB('Medium Gray',0.490196078431373,0.490196078431373,0.490196078431373);
#326=DRAUGHTING_PRE_DEFINED_CURVE_FONT('continuous');
#327=AXIS2_PLACEMENT_3D('',#492,#382,#383);
#328=AXIS2_PLACEMENT_3D('',#493,#384,#385);
#329=AXIS2_PLACEMENT_3D('',#494,#386,#387);
#330=AXIS2_PLACEMENT_3D('',#496,#388,#389);
#331=AXIS2_PLACEMENT_3D('',#498,#390,#391);
#332=AXIS2_PLACEMENT_3D('',#499,#392,#393);
#333=AXIS2_PLACEMENT_3D('',#501,#394,#395);
#334=AXIS2_PLACEMENT_3D('',#502,#396,#397);
#335=AXIS2_PLACEMENT_3D('',#503,#398,#399);
#336=AXIS2_PLACEMENT_3D('',#505,#400,#401);
#337=AXIS2_PLACEMENT_3D('',#506,#402,#403);
#338=AXIS2_PLACEMENT_3D('',#508,#404,#405);
#339=AXIS2_PLACEMENT_3D('',#509,#406,#407);
#340=AXIS2_PLACEMENT_3D('',#511,#408,#409);
#341=AXIS2_PLACEMENT_3D('',#512,#410,#411);
#342=AXIS2_PLACEMENT_3D('',#514,#412,#413);
#343=AXIS2_PLACEMENT_3D('',#515,#414,#415);
#344=AXIS2_PLACEMENT_3D('',#517,#416,#417);
#345=AXIS2_PLACEMENT_3D('',#518,#418,#419);
#346=AXIS2_PLACEMENT_3D('',#520,#420,#421);
#347=AXIS2_PLACEMENT_3D('',#521,#422,#423);
#348=AXIS2_PLACEMENT_3D('',#523,#424,#425);
#349=AXIS2_PLACEMENT_3D('',#524,#426,#427);
#350=AXIS2_PLACEMENT_3D('',#526,#428,#429);
#351=AXIS2_PLACEMENT_3D('',#527,#430,#431);
#352=AXIS2_PLACEMENT_3D('',#529,#432,#433);
#353=AXIS2_PLACEMENT_3D('',#530,#434,#435);
#354=AXIS2_PLACEMENT_3D('',#532,#436,#437);
#355=AXIS2_PLACEMENT_3D('',#533,#438,#439);
#356=AXIS2_PLACEMENT_3D('',#535,#440,#441);
#357=AXIS2_PLACEMENT_3D('',#536,#442,#443);
#358=AXIS2_PLACEMENT_3D('',#538,#444,#445);
#359=AXIS2_PLACEMENT_3D('',#539,#446,#447);
#360=AXIS2_PLACEMENT_3D('',#541,#448,#449);
#361=AXIS2_PLACEMENT_3D('',#542,#450,#451);
#362=AXIS2_PLACEMENT_3D('',#544,#452,#453);
#363=AXIS2_PLACEMENT_3D('',#545,#454,#455);
#364=AXIS2_PLACEMENT_3D('',#547,#456,#457);
#365=AXIS2_PLACEMENT_3D('',#548,#458,#459);
#366=AXIS2_PLACEMENT_3D('',#550,#460,#461);
#367=AXIS2_PLACEMENT_3D('',#551,#462,#463);
#368=AXIS2_PLACEMENT_3D('',#553,#464,#465);
#369=AXIS2_PLACEMENT_3D('',#554,#466,#467);
#370=AXIS2_PLACEMENT_3D('',#556,#468,#469);
#371=AXIS2_PLACEMENT_3D('',#557,#470,#471);
#372=AXIS2_PLACEMENT_3D('',#559,#472,#473);
#373=AXIS2_PLACEMENT_3D('',#560,#474,#475);
#374=AXIS2_PLACEMENT_3D('',#562,#476,#477);
#375=AXIS2_PLACEMENT_3D('',#563,#478,#479);
#376=AXIS2_PLACEMENT_3D('',#565,#480,#481);
#377=AXIS2_PLACEMENT_3D('',#566,#482,#483);
#378=AXIS2_PLACEMENT_3D('',#568,#484,#485);
#379=AXIS2_PLACEMENT_3D('',#569,#486,#487);
#380=AXIS2_PLACEMENT_3D('',#571,#488,#489);
#381=AXIS2_PLACEMENT_3D('',#572,#490,#491);
#382=DIRECTION('',(0.0,0.0,1.0));
#383=DIRECTION('',(1.0,0.0,0.0));
#384=DIRECTION('',(0.0,0.0,1.0));
#385=DIRECTION('',(1.0,0.0,0.0));
#386=DIRECTION('',(0.0,0.0,1.0));
#387=DIRECTION('',(1.0,0.0,0.0));
#388=DIRECTION('',(0.0,0.0,1.0));
#389=DIRECTION('',(1.0,0.0,0.0));
#390=DIRECTION('',(0.0,0.0,-1.0));
#391=DIRECTION('',(-1.0,0.0,2.57819068472513E-16));
#392=DIRECTION('',(0.0,0.0,1.0));
#393=DIRECTION('',(1.0,0.0,0.0));
#394=DIRECTION('',(0.0,0.0,1.0));
#395=DIRECTION('',(1.0,0.0,0.0));
#396=DIRECTION('',(0.0,0.0,-1.0));
#397=DIRECTION('',(-1.0,0.0,0.0));
#398=DIRECTION('',(0.0,0.0,1.0));
#399=DIRECTION('',(1.0,0.0,0.0));
#400=DIRECTION('',(0.0,0.0,1.0));
#401=DIRECTION('',(1.0,0.0,0.0));
#402=DIRECTION('',(0.0,0.0,1.0));
#403=DIRECTION('',(1.0,0.0,0.0));
#404=DIRECTION('',(0.0,0.0,1.0));
#405=DIRECTION('',(1.0,0.0,-5.49615358725329E-17));
#406=DIRECTION('',(0.0,0.0,1.0));
#407=DIRECTION('',(1.0,0.0,0.0));
#408=DIRECTION('',(0.0,0.0,1.0));
#409=DIRECTION('',(1.0,0.0,0.0));
#410=DIRECTION('',(0.0,0.0,1.0));
#411=DIRECTION('',(1.0,0.0,0.0));
#412=DIRECTION('',(0.0,0.0,1.0));
#413=DIRECTION('',(1.0,0.0,0.0));
#414=DIRECTION('',(0.0,0.0,1.0));
#415=DIRECTION('',(1.0,0.0,0.0));
#416=DIRECTION('',(0.0,0.0,1.0));
#417=DIRECTION('',(1.0,0.0,0.0));
#418=DIRECTION('',(0.0,0.0,1.0));
#419=DIRECTION('',(1.0,0.0,0.0));
#420=DIRECTION('',(0.0,0.0,1.0));
#421=DIRECTION('',(1.0,0.0,0.0));
#422=DIRECTION('',(0.0,0.0,1.0));
#423=DIRECTION('',(1.0,0.0,0.0));
#424=DIRECTION('',(0.0,0.0,1.0));
#425=DIRECTION('',(1.0,0.0,0.0));
#426=DIRECTION('',(0.0,0.0,1.0));
#427=DIRECTION('',(1.0,0.0,0.0));
#428=DIRECTION('',(0.0,0.0,1.0));
#429=DIRECTION('',(1.0,0.0,0.0));
#430=DIRECTION('',(0.0,0.0,1.0));
#431=DIRECTION('',(1.0,0.0,0.0));
#432=DIRECTION('',(0.0,0.0,1.0));
#433=DIRECTION('',(1.0,0.0,0.0));
#434=DIRECTION('',(0.0,0.0,1.0));
#435=DIRECTION('',(1.0,0.0,0.0));
#436=DIRECTION('',(0.0,0.0,1.0));
#437=DIRECTION('',(1.0,0.0,0.0));
#438=DIRECTION('',(0.0,0.0,1.0));
#439=DIRECTION('',(1.0,0.0,0.0));
#440=DIRECTION('',(0.0,0.0,1.0));
#441=DIRECTION('',(1.0,0.0,0.0));
#442=DIRECTION('',(0.0,0.0,1.0));
#443=DIRECTION('',(1.0,0.0,0.0));
#444=DIRECTION('',(0.0,0.0,-1.0));
#445=DIRECTION('',(-1.0,0.0,1.58147750730032E-17));
#446=DIRECTION('',(0.0,0.0,1.0));
#447=DIRECTION('',(1.0,0.0,0.0));
#448=DIRECTION('',(0.0,0.0,-1.0));
#449=DIRECTION('',(-1.0,0.0,0.0));
#450=DIRECTION('',(0.0,0.0,1.0));
#451=DIRECTION('',(1.0,0.0,0.0));
#452=DIRECTION('',(0.0,0.0,1.0));
#453=DIRECTION('',(1.0,0.0,0.0));
#454=DIRECTION('',(0.0,0.0,1.0));
#455=DIRECTION('',(1.0,0.0,0.0));
#456=DIRECTION('',(0.0,0.0,1.0));
#457=DIRECTION('',(1.0,0.0,0.0));
#458=DIRECTION('',(0.0,0.0,1.0));
#459=DIRECTION('',(1.0,0.0,0.0));
#460=DIRECTION('',(0.0,0.0,1.0));
#461=DIRECTION('',(1.0,0.0,0.0));
#462=DIRECTION('',(0.0,0.0,1.0));
#463=DIRECTION('',(1.0,0.0,0.0));
#464=DIRECTION('',(0.0,0.0,1.0));
#465=DIRECTION('',(1.0,0.0,0.0));
#466=DIRECTION('',(0.0,0.0,1.0));
#467=DIRECTION('',(1.0,0.0,0.0));
#468=DIRECTION('',(0.0,0.0,1.0));
#469=DIRECTION('',(1.0,0.0,-1.58446665962433E-17));
#470=DIRECTION('',(0.0,0.0,1.0));
#471=DIRECTION('',(1.0,0.0,0.0));
#472=DIRECTION('',(0.0,0.0,1.0));
#473=DIRECTION('',(1.0,0.0,0.0));
#474=DIRECTION('',(0.0,0.0,1.0));
#475=DIRECTION('',(1.0,0.0,0.0));
#476=DIRECTION('',(0.0,0.0,1.0));
#477=DIRECTION('',(1.0,0.0,0.0));
#478=DIRECTION('',(0.0,0.0,1.0));
#479=DIRECTION('',(1.0,0.0,0.0));
#480=DIRECTION('',(0.0,0.0,-1.0));
#481=DIRECTION('',(-1.0,0.0,0.0));
#482=DIRECTION('',(0.0,0.0,1.0));
#483=DIRECTION('',(1.0,0.0,0.0));
#484=DIRECTION('',(0.0,0.0,1.0));
#485=DIRECTION('',(1.0,0.0,0.0));
#486=DIRECTION('',(0.0,0.0,1.0));
#487=DIRECTION('',(1.0,0.0,0.0));
#488=DIRECTION('',(0.0,0.0,1.0));
#489=DIRECTION('',(1.0,0.0,0.0));
#490=DIRECTION('',(0.0,0.0,1.0));
#491=DIRECTION('',(1.0,0.0,1.46946023444747E-16));
#492=CARTESIAN_POINT('',(0.0,0.0,0.0));
#493=CARTESIAN_POINT('',(0.0,0.0,-2.0));
#494=CARTESIAN_POINT('',(0.0,0.0,47.9721593345899));
#495=CARTESIAN_POINT('',(8.87847705346031,0.0,47.9721593345899));
#496=CARTESIAN_POINT('',(0.0,0.0,1.62923065082628));
#497=CARTESIAN_POINT('',(15.6373840620927,0.0,1.62923065082628));
#498=CARTESIAN_POINT('',(0.0,0.0,1.62923065082628));
#499=CARTESIAN_POINT('',(0.0,0.0,48.4));
#500=CARTESIAN_POINT('',(8.383711421639,0.0,48.4));
#501=CARTESIAN_POINT('',(0.0,0.0,47.9));
#502=CARTESIAN_POINT('',(0.0,7.480940107676,48.4));
#503=CARTESIAN_POINT('',(0.0,0.0,-66.0));
#504=CARTESIAN_POINT('',(10.0,0.0,-66.0));
#505=CARTESIAN_POINT('',(0.0,4.25,-66.0));
#506=CARTESIAN_POINT('',(0.0,0.0,-65.0));
#507=CARTESIAN_POINT('',(11.0,0.0,-65.0));
#508=CARTESIAN_POINT('',(0.0,0.0,-66.0));
#509=CARTESIAN_POINT('',(0.0,0.0,-45.9));
#510=CARTESIAN_POINT('',(11.0,0.0,-45.9));
#511=CARTESIAN_POINT('',(0.0,0.0,-66.0));
#512=CARTESIAN_POINT('',(0.0,0.0,-45.9));
#513=CARTESIAN_POINT('',(13.0,0.0,-45.9));
#514=CARTESIAN_POINT('',(0.0,11.0,-45.9));
#515=CARTESIAN_POINT('',(0.0,0.0,-46.9));
#516=CARTESIAN_POINT('',(13.0,0.0,-46.9));
#517=CARTESIAN_POINT('',(0.0,0.0,-66.0));
#518=CARTESIAN_POINT('',(0.0,0.0,-46.9));
#519=CARTESIAN_POINT('',(20.0,0.0,-46.9));
#520=CARTESIAN_POINT('',(0.0,13.0,-46.9));
#521=CARTESIAN_POINT('',(0.0,0.0,-23.0));
#522=CARTESIAN_POINT('',(20.0,0.0,-23.0));
#523=CARTESIAN_POINT('',(0.0,0.0,-66.0));
#524=CARTESIAN_POINT('',(0.0,0.0,-22.0));
#525=CARTESIAN_POINT('',(21.0,0.0,-22.0));
#526=CARTESIAN_POINT('',(0.0,0.0,-23.0));
#527=CARTESIAN_POINT('',(0.0,0.0,-22.0));
#528=CARTESIAN_POINT('',(21.99,0.0,-22.0));
#529=CARTESIAN_POINT('',(0.0,21.0,-22.0));
#530=CARTESIAN_POINT('',(0.0,0.0,-21.0));
#531=CARTESIAN_POINT('',(22.99,0.0,-21.0));
#532=CARTESIAN_POINT('',(0.0,0.0,-21.0));
#533=CARTESIAN_POINT('',(0.0,0.0,-17.54907584126));
#534=CARTESIAN_POINT('',(22.99,0.0,-17.54907584126));
#535=CARTESIAN_POINT('',(0.0,0.0,-66.0));
#536=CARTESIAN_POINT('',(0.0,0.0,-15.6375000000008));
#537=CARTESIAN_POINT('',(19.6790535204196,0.0,-15.6375000000008));
#538=CARTESIAN_POINT('',(0.0,0.0,-17.54907584126));
#539=CARTESIAN_POINT('',(0.0,0.0,-15.6375));
#540=CARTESIAN_POINT('',(19.625,0.0,-15.6375));
#541=CARTESIAN_POINT('',(0.0,19.67905352042,-15.6375000000004));
#542=CARTESIAN_POINT('',(0.0,0.0,-14.8875));
#543=CARTESIAN_POINT('',(18.875,0.0,-14.8875));
#544=CARTESIAN_POINT('',(0.0,0.0,-14.8875));
#545=CARTESIAN_POINT('',(0.0,0.0,-12.3125));
#546=CARTESIAN_POINT('',(18.875,0.0,-12.3125));
#547=CARTESIAN_POINT('',(0.0,0.0,-66.0));
#548=CARTESIAN_POINT('',(0.0,0.0,-11.5625));
#549=CARTESIAN_POINT('',(19.625,0.0,-11.5625));
#550=CARTESIAN_POINT('',(0.0,0.0,-12.3125));
#551=CARTESIAN_POINT('',(0.0,0.0,-11.5625));
#552=CARTESIAN_POINT('',(19.67905352042,0.0,-11.5625));
#553=CARTESIAN_POINT('',(0.0,19.625,-11.5625));
#554=CARTESIAN_POINT('',(0.0,0.0,-9.65092415874152));
#555=CARTESIAN_POINT('',(22.9899999999991,0.0,-9.65092415874152));
#556=CARTESIAN_POINT('',(0.0,0.0,-11.5625));
#557=CARTESIAN_POINT('',(0.0,0.0,-3.0));
#558=CARTESIAN_POINT('',(22.99,0.0,-3.0));
#559=CARTESIAN_POINT('',(0.0,0.0,-66.0));
#560=CARTESIAN_POINT('',(0.0,0.0,-2.0));
#561=CARTESIAN_POINT('',(21.99,0.0,-2.0));
#562=CARTESIAN_POINT('',(0.0,0.0,-3.0));
#563=CARTESIAN_POINT('',(0.0,0.0,-2.0));
#564=CARTESIAN_POINT('',(16.375,0.0,-2.0));
#565=CARTESIAN_POINT('',(0.0,21.99,-2.0));
#566=CARTESIAN_POINT('',(0.0,0.0,-1.0));
#567=CARTESIAN_POINT('',(15.375,0.0,-1.0));
#568=CARTESIAN_POINT('',(0.0,0.0,-1.0));
#569=CARTESIAN_POINT('',(0.0,0.0,0.649999999999998));
#570=CARTESIAN_POINT('',(15.375,0.0,0.649999999999998));
#571=CARTESIAN_POINT('',(0.0,0.0,-66.0));
#572=CARTESIAN_POINT('',(0.0,0.0,0.649999999999998));
#573=MECHANICAL_DESIGN_GEOMETRIC_PRESENTATION_REPRESENTATION('',(#319,#320),#574);
#574=(GEOMETRIC_REPRESENTATION_CONTEXT(3)GLOBAL_UNCERTAINTY_ASSIGNED_CONTEXT((#575))
     GLOBAL_UNIT_ASSIGNED_CONTEXT((#581,#577,#576))REPRESENTATION_CONTEXT('A208-3022047',
     'TOP_LEVEL_ASSEMBLY_PART'));
#575=UNCERTAINTY_MEASURE_WITH_UNIT(LENGTH_MEASURE(2.0E-5),#581,'DISTANCE_ACCURACY_VALUE',
     'Maximum Tolerance applied to model');
#576=(NAMED_UNIT(*)SI_UNIT($,.STERADIAN.)SOLID_ANGLE_UNIT());
#577=(CONVERSION_BASED_UNIT('DEGREE',#579)NAMED_UNIT(*)PLANE_ANGLE_UNIT());
#578=DIMENSIONAL_EXPONENTS(0.0,0.0,0.0,0.0,0.0,0.0,0.0);
#579=PLANE_ANGLE_MEASURE_WITH_UNIT(PLANE_ANGLE_MEASURE(0.0174532925),#580);
#580=(NAMED_UNIT(*)PLANE_ANGLE_UNIT()SI_UNIT($,.RADIAN.));
#581=(LENGTH_UNIT()NAMED_UNIT(*)SI_UNIT(.MILLI.,.METRE.));
#582=CARTESIAN_POINT('',(0.0,0.0,0.0));
#583=DIRECTION('',(0.0,0.0,1.0));
#584=DIRECTION('',(1.0,0.0,0.0));
#585=AXIS2_PLACEMENT_3D('PCS',#582,#583,#584);
#586=CARTESIAN_POINT('',(0.0,0.0,0.0));
#587=DIRECTION('',(0.0,0.0,1.0));
#588=DIRECTION('',(1.0,0.0,0.0));
#589=AXIS2_PLACEMENT_3D('MCS',#586,#587,#588);
#590=CARTESIAN_POINT('',(0.0,0.0,-35.0));
#591=DIRECTION('',(0.0,0.0,1.0));
#592=DIRECTION('',(1.0,0.0,0.0));
#593=AXIS2_PLACEMENT_3D('CSW',#590,#591,#592);
#594=CONSTRUCTIVE_GEOMETRY_REPRESENTATION('supplemental geometry',(#585,#589,#593),
     #574);
#595=CONSTRUCTIVE_GEOMETRY_REPRESENTATION_RELATIONSHIP('supplemental geometry',$,
     #22,#594);
ENDSEC;
END-ISO-10303-21;
