ISO-10303-21;
HEADER;
/* Generated by software containing ST-Developer
 * from STEP Tools, Inc. (www.steptools.com) 
 */
/* OPTION: using custom schema-name function */

FILE_DESCRIPTION(
/* description */ (''),
/* implementation_level */ '2;1');

FILE_NAME(
/* name */ '1493814582471.stp',
/* time_stamp */ '2017-05-03T14:29:47+02:00',
/* author */ (''),
/* organization */ ('SMS'),
/* preprocessor_version */ 'ST-DEVELOPER v15',
/* originating_system */ 'SIEMENS PLM Software NX 8.5',
/* authorisation */ '');

FILE_SCHEMA (('AUTOMOTIVE_DESIGN { 1 0 10303 214 3 1 1 1 }'));
ENDSEC;

DATA;
#10=CONSTRUCTIVE_GEOMETRY_REPRESENTATION_RELATIONSHIP(
'supplemental geometry','',#24,#11);
#11=CONSTRUCTIVE_GEOMETRY_REPRESENTATION('supplemental geometry',(#338,
#339,#340),#592);
#12=SHAPE_REPRESENTATION_RELATIONSHIP('None',
'relationship between 200922063MOD000_01-None and 200922063MOD000_01-N
one',#24,#13);
#13=ADVANCED_BREP_SHAPE_REPRESENTATION('200922063MOD000_01-None',(#30),
#592);
#14=SHAPE_DEFINITION_REPRESENTATION(#15,#24);
#15=PRODUCT_DEFINITION_SHAPE('','',#16);
#16=PRODUCT_DEFINITION(' ','',#18,#17);
#17=PRODUCT_DEFINITION_CONTEXT('part definition',#23,'design');
#18=PRODUCT_DEFINITION_FORMATION_WITH_SPECIFIED_SOURCE(' ',' ',#20,
 .NOT_KNOWN.);
#19=PRODUCT_RELATED_PRODUCT_CATEGORY('part','',(#20));
#20=PRODUCT('200922063MOD000_01','200922063MOD000_01',' ',(#21));
#21=PRODUCT_CONTEXT(' ',#23,'mechanical');
#22=APPLICATION_PROTOCOL_DEFINITION('international standard',
'automotive_design',2010,#23);
#23=APPLICATION_CONTEXT(
'core data for automotive mechanical design processes');
#24=SHAPE_REPRESENTATION('200922063MOD000_01-None',(#337),#592);
#25=SURFACE_STYLE_USAGE(.BOTH.,#26);
#26=SURFACE_SIDE_STYLE('',(#27));
#27=SURFACE_STYLE_FILL_AREA(#28);
#28=FILL_AREA_STYLE('',(#29));
#29=FILL_AREA_STYLE_COLOUR('',#333);
#30=MANIFOLD_SOLID_BREP('',#31);
#31=CLOSED_SHELL('',(#57,#58,#59,#60,#61,#62,#63,#64,#65,#66,#67,#68,#69,
#70,#71,#72,#73,#74,#75,#76,#77,#78,#79,#80,#81,#82,#83));
#32=FACE_OUTER_BOUND('',#174,.T.);
#33=FACE_OUTER_BOUND('',#175,.T.);
#34=CONICAL_SURFACE('',#355,9.84752086140683,30.0000000000006);
#35=CONICAL_SURFACE('',#367,10.,8.00000000000003);
#36=CONICAL_SURFACE('',#371,8.54947384514113,7.99999999999998);
#37=CONICAL_SURFACE('',#375,7.68107622741056,8.00000000000011);
#38=CONICAL_SURFACE('',#377,6.51448605396619,48.9999999999994);
#39=CONICAL_SURFACE('',#386,7.78,30.);
#40=CONICAL_SURFACE('',#390,8.,45.0000000000005);
#41=CONICAL_SURFACE('',#393,12.5,60.);
#42=PLANE('',#349);
#43=PLANE('',#353);
#44=PLANE('',#359);
#45=PLANE('',#363);
#46=PLANE('',#378);
#47=PLANE('',#380);
#48=PLANE('',#384);
#49=PLANE('',#392);
#50=CYLINDRICAL_SURFACE('',#345,17.5);
#51=CYLINDRICAL_SURFACE('',#351,11.75);
#52=CYLINDRICAL_SURFACE('',#357,10.);
#53=CYLINDRICAL_SURFACE('',#361,8.7);
#54=CYLINDRICAL_SURFACE('',#365,10.);
#55=CYLINDRICAL_SURFACE('',#382,7.7);
#56=CYLINDRICAL_SURFACE('',#388,8.00000000000001);
#57=ADVANCED_FACE('',(#88,#89),#84,.T.);
#58=ADVANCED_FACE('',(#90,#91),#50,.T.);
#59=ADVANCED_FACE('',(#92,#93),#85,.T.);
#60=ADVANCED_FACE('',(#94,#95),#42,.T.);
#61=ADVANCED_FACE('',(#96,#97),#51,.F.);
#62=ADVANCED_FACE('',(#98,#99),#43,.T.);
#63=ADVANCED_FACE('',(#100,#101),#34,.T.);
#64=ADVANCED_FACE('',(#102,#103),#52,.T.);
#65=ADVANCED_FACE('',(#104,#105),#44,.T.);
#66=ADVANCED_FACE('',(#106,#107),#53,.T.);
#67=ADVANCED_FACE('',(#108,#109),#45,.T.);
#68=ADVANCED_FACE('',(#110,#111),#54,.T.);
#69=ADVANCED_FACE('',(#112,#113),#35,.T.);
#70=ADVANCED_FACE('',(#114,#115),#86,.F.);
#71=ADVANCED_FACE('',(#116,#117),#36,.T.);
#72=ADVANCED_FACE('',(#118,#119),#87,.F.);
#73=ADVANCED_FACE('',(#120,#121),#37,.T.);
#74=ADVANCED_FACE('',(#122,#123),#38,.T.);
#75=ADVANCED_FACE('',(#32),#46,.T.);
#76=ADVANCED_FACE('',(#33),#47,.T.);
#77=ADVANCED_FACE('',(#124,#125),#55,.T.);
#78=ADVANCED_FACE('',(#126,#127),#48,.T.);
#79=ADVANCED_FACE('',(#128,#129),#39,.T.);
#80=ADVANCED_FACE('',(#130,#131),#56,.F.);
#81=ADVANCED_FACE('',(#132,#133),#40,.F.);
#82=ADVANCED_FACE('',(#134,#135),#49,.T.);
#83=ADVANCED_FACE('',(#136,#137),#41,.T.);
#84=TOROIDAL_SURFACE('',#343,16.5,1.);
#85=TOROIDAL_SURFACE('',#347,16.7,0.8);
#86=TOROIDAL_SURFACE('',#369,9.53974191388269,1.);
#87=TOROIDAL_SURFACE('',#373,8.47365334949812,1.);
#88=FACE_BOUND('',#138,.T.);
#89=FACE_BOUND('',#139,.T.);
#90=FACE_BOUND('',#140,.T.);
#91=FACE_BOUND('',#141,.T.);
#92=FACE_BOUND('',#142,.T.);
#93=FACE_BOUND('',#143,.T.);
#94=FACE_BOUND('',#144,.T.);
#95=FACE_BOUND('',#145,.T.);
#96=FACE_BOUND('',#146,.T.);
#97=FACE_BOUND('',#147,.T.);
#98=FACE_BOUND('',#148,.T.);
#99=FACE_BOUND('',#149,.T.);
#100=FACE_BOUND('',#150,.T.);
#101=FACE_BOUND('',#151,.T.);
#102=FACE_BOUND('',#152,.T.);
#103=FACE_BOUND('',#153,.T.);
#104=FACE_BOUND('',#154,.T.);
#105=FACE_BOUND('',#155,.T.);
#106=FACE_BOUND('',#156,.T.);
#107=FACE_BOUND('',#157,.T.);
#108=FACE_BOUND('',#158,.T.);
#109=FACE_BOUND('',#159,.T.);
#110=FACE_BOUND('',#160,.T.);
#111=FACE_BOUND('',#161,.T.);
#112=FACE_BOUND('',#162,.T.);
#113=FACE_BOUND('',#163,.T.);
#114=FACE_BOUND('',#164,.T.);
#115=FACE_BOUND('',#165,.T.);
#116=FACE_BOUND('',#166,.T.);
#117=FACE_BOUND('',#167,.T.);
#118=FACE_BOUND('',#168,.T.);
#119=FACE_BOUND('',#169,.T.);
#120=FACE_BOUND('',#170,.T.);
#121=FACE_BOUND('',#171,.T.);
#122=FACE_BOUND('',#172,.T.);
#123=FACE_BOUND('',#173,.T.);
#124=FACE_BOUND('',#176,.T.);
#125=FACE_BOUND('',#177,.T.);
#126=FACE_BOUND('',#178,.T.);
#127=FACE_BOUND('',#179,.T.);
#128=FACE_BOUND('',#180,.T.);
#129=FACE_BOUND('',#181,.T.);
#130=FACE_BOUND('',#182,.T.);
#131=FACE_BOUND('',#183,.T.);
#132=FACE_BOUND('',#184,.T.);
#133=FACE_BOUND('',#185,.T.);
#134=FACE_BOUND('',#186,.T.);
#135=FACE_BOUND('',#187,.T.);
#136=FACE_BOUND('',#188,.T.);
#137=FACE_BOUND('',#189,.T.);
#138=EDGE_LOOP('',(#190));
#139=EDGE_LOOP('',(#191));
#140=EDGE_LOOP('',(#192));
#141=EDGE_LOOP('',(#193));
#142=EDGE_LOOP('',(#194));
#143=EDGE_LOOP('',(#195));
#144=EDGE_LOOP('',(#196));
#145=EDGE_LOOP('',(#197));
#146=EDGE_LOOP('',(#198));
#147=EDGE_LOOP('',(#199));
#148=EDGE_LOOP('',(#200));
#149=EDGE_LOOP('',(#201));
#150=EDGE_LOOP('',(#202));
#151=EDGE_LOOP('',(#203));
#152=EDGE_LOOP('',(#204));
#153=EDGE_LOOP('',(#205));
#154=EDGE_LOOP('',(#206));
#155=EDGE_LOOP('',(#207));
#156=EDGE_LOOP('',(#208));
#157=EDGE_LOOP('',(#209));
#158=EDGE_LOOP('',(#210));
#159=EDGE_LOOP('',(#211));
#160=EDGE_LOOP('',(#212));
#161=EDGE_LOOP('',(#213));
#162=EDGE_LOOP('',(#214));
#163=EDGE_LOOP('',(#215));
#164=EDGE_LOOP('',(#216));
#165=EDGE_LOOP('',(#217));
#166=EDGE_LOOP('',(#218));
#167=EDGE_LOOP('',(#219));
#168=EDGE_LOOP('',(#220));
#169=EDGE_LOOP('',(#221));
#170=EDGE_LOOP('',(#222));
#171=EDGE_LOOP('',(#223));
#172=EDGE_LOOP('',(#224));
#173=EDGE_LOOP('',(#225));
#174=EDGE_LOOP('',(#226));
#175=EDGE_LOOP('',(#227));
#176=EDGE_LOOP('',(#228));
#177=EDGE_LOOP('',(#229));
#178=EDGE_LOOP('',(#230));
#179=EDGE_LOOP('',(#231));
#180=EDGE_LOOP('',(#232));
#181=EDGE_LOOP('',(#233));
#182=EDGE_LOOP('',(#234));
#183=EDGE_LOOP('',(#235));
#184=EDGE_LOOP('',(#236));
#185=EDGE_LOOP('',(#237));
#186=EDGE_LOOP('',(#238));
#187=EDGE_LOOP('',(#239));
#188=EDGE_LOOP('',(#240));
#189=EDGE_LOOP('',(#241));
#190=ORIENTED_EDGE('',*,*,#268,.T.);
#191=ORIENTED_EDGE('',*,*,#269,.F.);
#192=ORIENTED_EDGE('',*,*,#270,.T.);
#193=ORIENTED_EDGE('',*,*,#268,.F.);
#194=ORIENTED_EDGE('',*,*,#271,.T.);
#195=ORIENTED_EDGE('',*,*,#270,.F.);
#196=ORIENTED_EDGE('',*,*,#272,.T.);
#197=ORIENTED_EDGE('',*,*,#271,.F.);
#198=ORIENTED_EDGE('',*,*,#273,.T.);
#199=ORIENTED_EDGE('',*,*,#272,.F.);
#200=ORIENTED_EDGE('',*,*,#274,.T.);
#201=ORIENTED_EDGE('',*,*,#273,.F.);
#202=ORIENTED_EDGE('',*,*,#275,.T.);
#203=ORIENTED_EDGE('',*,*,#274,.F.);
#204=ORIENTED_EDGE('',*,*,#276,.T.);
#205=ORIENTED_EDGE('',*,*,#275,.F.);
#206=ORIENTED_EDGE('',*,*,#277,.T.);
#207=ORIENTED_EDGE('',*,*,#276,.F.);
#208=ORIENTED_EDGE('',*,*,#278,.T.);
#209=ORIENTED_EDGE('',*,*,#277,.F.);
#210=ORIENTED_EDGE('',*,*,#279,.T.);
#211=ORIENTED_EDGE('',*,*,#278,.F.);
#212=ORIENTED_EDGE('',*,*,#280,.T.);
#213=ORIENTED_EDGE('',*,*,#279,.F.);
#214=ORIENTED_EDGE('',*,*,#281,.T.);
#215=ORIENTED_EDGE('',*,*,#280,.F.);
#216=ORIENTED_EDGE('',*,*,#282,.T.);
#217=ORIENTED_EDGE('',*,*,#281,.F.);
#218=ORIENTED_EDGE('',*,*,#283,.T.);
#219=ORIENTED_EDGE('',*,*,#282,.F.);
#220=ORIENTED_EDGE('',*,*,#284,.T.);
#221=ORIENTED_EDGE('',*,*,#283,.F.);
#222=ORIENTED_EDGE('',*,*,#285,.T.);
#223=ORIENTED_EDGE('',*,*,#284,.F.);
#224=ORIENTED_EDGE('',*,*,#286,.T.);
#225=ORIENTED_EDGE('',*,*,#285,.F.);
#226=ORIENTED_EDGE('',*,*,#286,.F.);
#227=ORIENTED_EDGE('',*,*,#287,.T.);
#228=ORIENTED_EDGE('',*,*,#288,.T.);
#229=ORIENTED_EDGE('',*,*,#287,.F.);
#230=ORIENTED_EDGE('',*,*,#289,.T.);
#231=ORIENTED_EDGE('',*,*,#288,.F.);
#232=ORIENTED_EDGE('',*,*,#290,.T.);
#233=ORIENTED_EDGE('',*,*,#289,.F.);
#234=ORIENTED_EDGE('',*,*,#291,.T.);
#235=ORIENTED_EDGE('',*,*,#290,.F.);
#236=ORIENTED_EDGE('',*,*,#292,.T.);
#237=ORIENTED_EDGE('',*,*,#291,.F.);
#238=ORIENTED_EDGE('',*,*,#293,.T.);
#239=ORIENTED_EDGE('',*,*,#292,.F.);
#240=ORIENTED_EDGE('',*,*,#269,.T.);
#241=ORIENTED_EDGE('',*,*,#293,.F.);
#242=VERTEX_POINT('',#513);
#243=VERTEX_POINT('',#515);
#244=VERTEX_POINT('',#518);
#245=VERTEX_POINT('',#521);
#246=VERTEX_POINT('',#524);
#247=VERTEX_POINT('',#527);
#248=VERTEX_POINT('',#530);
#249=VERTEX_POINT('',#533);
#250=VERTEX_POINT('',#536);
#251=VERTEX_POINT('',#539);
#252=VERTEX_POINT('',#542);
#253=VERTEX_POINT('',#545);
#254=VERTEX_POINT('',#548);
#255=VERTEX_POINT('',#551);
#256=VERTEX_POINT('',#554);
#257=VERTEX_POINT('',#557);
#258=VERTEX_POINT('',#560);
#259=VERTEX_POINT('',#563);
#260=VERTEX_POINT('',#566);
#261=VERTEX_POINT('',#570);
#262=VERTEX_POINT('',#573);
#263=VERTEX_POINT('',#576);
#264=VERTEX_POINT('',#579);
#265=VERTEX_POINT('',#582);
#266=VERTEX_POINT('',#585);
#267=VERTEX_POINT('',#588);
#268=EDGE_CURVE('',#242,#242,#294,.T.);
#269=EDGE_CURVE('',#243,#243,#295,.T.);
#270=EDGE_CURVE('',#244,#244,#296,.T.);
#271=EDGE_CURVE('',#245,#245,#297,.T.);
#272=EDGE_CURVE('',#246,#246,#298,.T.);
#273=EDGE_CURVE('',#247,#247,#299,.T.);
#274=EDGE_CURVE('',#248,#248,#300,.T.);
#275=EDGE_CURVE('',#249,#249,#301,.T.);
#276=EDGE_CURVE('',#250,#250,#302,.T.);
#277=EDGE_CURVE('',#251,#251,#303,.T.);
#278=EDGE_CURVE('',#252,#252,#304,.T.);
#279=EDGE_CURVE('',#253,#253,#305,.T.);
#280=EDGE_CURVE('',#254,#254,#306,.T.);
#281=EDGE_CURVE('',#255,#255,#307,.T.);
#282=EDGE_CURVE('',#256,#256,#308,.T.);
#283=EDGE_CURVE('',#257,#257,#309,.T.);
#284=EDGE_CURVE('',#258,#258,#310,.T.);
#285=EDGE_CURVE('',#259,#259,#311,.T.);
#286=EDGE_CURVE('',#260,#260,#312,.T.);
#287=EDGE_CURVE('',#261,#261,#313,.T.);
#288=EDGE_CURVE('',#262,#262,#314,.T.);
#289=EDGE_CURVE('',#263,#263,#315,.T.);
#290=EDGE_CURVE('',#264,#264,#316,.T.);
#291=EDGE_CURVE('',#265,#265,#317,.T.);
#292=EDGE_CURVE('',#266,#266,#318,.T.);
#293=EDGE_CURVE('',#267,#267,#319,.T.);
#294=CIRCLE('',#341,17.5);
#295=CIRCLE('',#342,17.);
#296=CIRCLE('',#344,17.5);
#297=CIRCLE('',#346,16.7);
#298=CIRCLE('',#348,11.75);
#299=CIRCLE('',#350,11.75);
#300=CIRCLE('',#352,9.84752086140683);
#301=CIRCLE('',#354,10.);
#302=CIRCLE('',#356,10.);
#303=CIRCLE('',#358,8.7);
#304=CIRCLE('',#360,8.7);
#305=CIRCLE('',#362,10.);
#306=CIRCLE('',#364,10.);
#307=CIRCLE('',#366,8.94594373973206);
#308=CIRCLE('',#368,8.54947384514112);
#309=CIRCLE('',#370,7.48338528075655);
#310=CIRCLE('',#372,7.68107622741056);
#311=CIRCLE('',#374,6.51448605396619);
#312=CIRCLE('',#376,5.94013057409611);
#313=CIRCLE('',#379,7.7);
#314=CIRCLE('',#381,7.7);
#315=CIRCLE('',#383,7.78);
#316=CIRCLE('',#385,8.00000000000002);
#317=CIRCLE('',#387,8.);
#318=CIRCLE('',#389,8.3);
#319=CIRCLE('',#391,12.5);
#320=PRESENTATION_LAYER_ASSIGNMENT('1','Layer 1',(#338,#339,#340,#30));
#321=STYLED_ITEM('',(#325),#338);
#322=STYLED_ITEM('',(#326),#339);
#323=STYLED_ITEM('',(#327),#340);
#324=STYLED_ITEM('',(#328),#30);
#325=PRESENTATION_STYLE_ASSIGNMENT((#329));
#326=PRESENTATION_STYLE_ASSIGNMENT((#330));
#327=PRESENTATION_STYLE_ASSIGNMENT((#331));
#328=PRESENTATION_STYLE_ASSIGNMENT((#25));
#329=CURVE_STYLE('',#334,POSITIVE_LENGTH_MEASURE(0.13),#332);
#330=CURVE_STYLE('',#335,POSITIVE_LENGTH_MEASURE(0.13),#332);
#331=CURVE_STYLE('',#336,POSITIVE_LENGTH_MEASURE(0.13),#332);
#332=COLOUR_RGB('Strong Stone',0.576470588235294,0.54508278019379,0.392156862745098);
#333=COLOUR_RGB('TLS_NOCUT',0.499992370489052,0.499992370489052,0.499992370489052);
#334=DRAUGHTING_PRE_DEFINED_CURVE_FONT('continuous');
#335=DRAUGHTING_PRE_DEFINED_CURVE_FONT('continuous');
#336=DRAUGHTING_PRE_DEFINED_CURVE_FONT('continuous');
#337=AXIS2_PLACEMENT_3D('',#508,#394,#395);
#338=AXIS2_PLACEMENT_3D('PCS',#509,#396,#397);
#339=AXIS2_PLACEMENT_3D('MCS',#510,#398,#399);
#340=AXIS2_PLACEMENT_3D('CSW',#511,#400,#401);
#341=AXIS2_PLACEMENT_3D('',#512,#402,#403);
#342=AXIS2_PLACEMENT_3D('',#514,#404,#405);
#343=AXIS2_PLACEMENT_3D('',#516,#406,#407);
#344=AXIS2_PLACEMENT_3D('',#517,#408,#409);
#345=AXIS2_PLACEMENT_3D('',#519,#410,#411);
#346=AXIS2_PLACEMENT_3D('',#520,#412,#413);
#347=AXIS2_PLACEMENT_3D('',#522,#414,#415);
#348=AXIS2_PLACEMENT_3D('',#523,#416,#417);
#349=AXIS2_PLACEMENT_3D('',#525,#418,#419);
#350=AXIS2_PLACEMENT_3D('',#526,#420,#421);
#351=AXIS2_PLACEMENT_3D('',#528,#422,#423);
#352=AXIS2_PLACEMENT_3D('',#529,#424,#425);
#353=AXIS2_PLACEMENT_3D('',#531,#426,#427);
#354=AXIS2_PLACEMENT_3D('',#532,#428,#429);
#355=AXIS2_PLACEMENT_3D('',#534,#430,#431);
#356=AXIS2_PLACEMENT_3D('',#535,#432,#433);
#357=AXIS2_PLACEMENT_3D('',#537,#434,#435);
#358=AXIS2_PLACEMENT_3D('',#538,#436,#437);
#359=AXIS2_PLACEMENT_3D('',#540,#438,#439);
#360=AXIS2_PLACEMENT_3D('',#541,#440,#441);
#361=AXIS2_PLACEMENT_3D('',#543,#442,#443);
#362=AXIS2_PLACEMENT_3D('',#544,#444,#445);
#363=AXIS2_PLACEMENT_3D('',#546,#446,#447);
#364=AXIS2_PLACEMENT_3D('',#547,#448,#449);
#365=AXIS2_PLACEMENT_3D('',#549,#450,#451);
#366=AXIS2_PLACEMENT_3D('',#550,#452,#453);
#367=AXIS2_PLACEMENT_3D('',#552,#454,#455);
#368=AXIS2_PLACEMENT_3D('',#553,#456,#457);
#369=AXIS2_PLACEMENT_3D('',#555,#458,#459);
#370=AXIS2_PLACEMENT_3D('',#556,#460,#461);
#371=AXIS2_PLACEMENT_3D('',#558,#462,#463);
#372=AXIS2_PLACEMENT_3D('',#559,#464,#465);
#373=AXIS2_PLACEMENT_3D('',#561,#466,#467);
#374=AXIS2_PLACEMENT_3D('',#562,#468,#469);
#375=AXIS2_PLACEMENT_3D('',#564,#470,#471);
#376=AXIS2_PLACEMENT_3D('',#565,#472,#473);
#377=AXIS2_PLACEMENT_3D('',#567,#474,#475);
#378=AXIS2_PLACEMENT_3D('',#568,#476,#477);
#379=AXIS2_PLACEMENT_3D('',#569,#478,#479);
#380=AXIS2_PLACEMENT_3D('',#571,#480,#481);
#381=AXIS2_PLACEMENT_3D('',#572,#482,#483);
#382=AXIS2_PLACEMENT_3D('',#574,#484,#485);
#383=AXIS2_PLACEMENT_3D('',#575,#486,#487);
#384=AXIS2_PLACEMENT_3D('',#577,#488,#489);
#385=AXIS2_PLACEMENT_3D('',#578,#490,#491);
#386=AXIS2_PLACEMENT_3D('',#580,#492,#493);
#387=AXIS2_PLACEMENT_3D('',#581,#494,#495);
#388=AXIS2_PLACEMENT_3D('',#583,#496,#497);
#389=AXIS2_PLACEMENT_3D('',#584,#498,#499);
#390=AXIS2_PLACEMENT_3D('',#586,#500,#501);
#391=AXIS2_PLACEMENT_3D('',#587,#502,#503);
#392=AXIS2_PLACEMENT_3D('',#589,#504,#505);
#393=AXIS2_PLACEMENT_3D('',#590,#506,#507);
#394=DIRECTION('',(0.,0.,1.));
#395=DIRECTION('',(1.,0.,0.));
#396=DIRECTION('',(0.,0.,1.));
#397=DIRECTION('',(1.,0.,0.));
#398=DIRECTION('',(0.,0.,1.));
#399=DIRECTION('',(1.,0.,0.));
#400=DIRECTION('',(0.,0.,1.));
#401=DIRECTION('',(1.,0.,0.));
#402=DIRECTION('',(0.,3.59440882112556E-017,-1.));
#403=DIRECTION('',(0.,1.,4.95635278850516E-017));
#404=DIRECTION('',(0.,3.59440882112556E-017,-1.));
#405=DIRECTION('',(0.,1.,5.10212787052002E-017));
#406=DIRECTION('',(0.,3.59440882112556E-017,-1.));
#407=DIRECTION('',(0.,-1.,-4.95635278850516E-017));
#408=DIRECTION('',(0.,3.59440882112556E-017,-1.));
#409=DIRECTION('',(0.,1.,0.));
#410=DIRECTION('',(0.,3.59440882112556E-017,-1.));
#411=DIRECTION('',(0.,-1.,0.));
#412=DIRECTION('',(0.,3.59440882112556E-017,-1.));
#413=DIRECTION('',(0.,1.,0.));
#414=DIRECTION('',(0.,3.59440882112556E-017,-1.));
#415=DIRECTION('',(0.,-1.,0.));
#416=DIRECTION('',(0.,3.59440882112556E-017,-1.));
#417=DIRECTION('',(0.,1.,0.));
#418=DIRECTION('',(0.,-3.59440882112556E-017,1.));
#419=DIRECTION('',(0.,1.,3.64291929955129E-017));
#420=DIRECTION('',(0.,3.59440882112556E-017,-1.));
#421=DIRECTION('',(0.,1.,0.));
#422=DIRECTION('',(0.,3.59440882112556E-017,-1.));
#423=DIRECTION('',(0.,-1.,0.));
#424=DIRECTION('',(0.,3.59440882112556E-017,-1.));
#425=DIRECTION('',(0.,1.,0.));
#426=DIRECTION('',(0.,-3.59440882112556E-017,1.));
#427=DIRECTION('',(0.,1.,3.55618312575245E-017));
#428=DIRECTION('',(0.,3.59440882112556E-017,-1.));
#429=DIRECTION('',(0.,1.,0.));
#430=DIRECTION('',(0.,-3.59440882112556E-017,1.));
#431=DIRECTION('',(0.,1.,5.61305689530849E-017));
#432=DIRECTION('',(0.,3.59440882112556E-017,-1.));
#433=DIRECTION('',(0.,1.,4.33680868994202E-017));
#434=DIRECTION('',(0.,3.59440882112556E-017,-1.));
#435=DIRECTION('',(0.,-1.,0.));
#436=DIRECTION('',(0.,3.59440882112556E-017,-1.));
#437=DIRECTION('',(0.,1.,4.984837574646E-017));
#438=DIRECTION('',(0.,-3.59440882112556E-017,1.));
#439=DIRECTION('',(0.,1.,3.59955121265187E-017));
#440=DIRECTION('',(0.,3.59440882112556E-017,-1.));
#441=DIRECTION('',(0.,1.,2.492418787323E-017));
#442=DIRECTION('',(0.,3.59440882112556E-017,-1.));
#443=DIRECTION('',(0.,-1.,0.));
#444=DIRECTION('',(0.,3.59440882112556E-017,-1.));
#445=DIRECTION('',(0.,1.,4.33680868994202E-017));
#446=DIRECTION('',(0.,3.59440882112556E-017,-1.));
#447=DIRECTION('',(0.,-1.,-3.59955121265187E-017));
#448=DIRECTION('',(0.,3.59440882112556E-017,-1.));
#449=DIRECTION('',(0.,1.,3.59440882112556E-017));
#450=DIRECTION('',(0.,3.59440882112556E-017,-1.));
#451=DIRECTION('',(0.,-1.,0.));
#452=DIRECTION('',(0.,3.59440882112556E-017,-1.));
#453=DIRECTION('',(0.,1.,0.));
#454=DIRECTION('',(0.,3.59440882112556E-017,-1.));
#455=DIRECTION('',(0.,-1.,1.15232752588773E-017));
#456=DIRECTION('',(0.,3.59440882112556E-017,-1.));
#457=DIRECTION('',(0.,1.,0.));
#458=DIRECTION('',(0.,3.59440882112556E-017,-1.));
#459=DIRECTION('',(0.,-1.,0.));
#460=DIRECTION('',(0.,3.59440882112556E-017,-1.));
#461=DIRECTION('',(0.,1.,0.));
#462=DIRECTION('',(0.,3.59440882112556E-017,-1.));
#463=DIRECTION('',(0.,-1.,3.49061617661838E-017));
#464=DIRECTION('',(0.,3.59440882112556E-017,-1.));
#465=DIRECTION('',(0.,1.,0.));
#466=DIRECTION('',(0.,3.59440882112556E-017,-1.));
#467=DIRECTION('',(0.,-1.,0.));
#468=DIRECTION('',(0.,3.59440882112556E-017,-1.));
#469=DIRECTION('',(0.,1.,0.));
#470=DIRECTION('',(0.,3.59440882112556E-017,-1.));
#471=DIRECTION('',(0.,-1.,-2.80885350635915E-016));
#472=DIRECTION('',(0.,3.59440882112556E-017,-1.));
#473=DIRECTION('',(0.,1.,0.));
#474=DIRECTION('',(0.,3.59440882112556E-017,-1.));
#475=DIRECTION('',(0.,-1.,-4.19854573092098E-017));
#476=DIRECTION('',(0.,-3.59440882112556E-017,1.));
#477=DIRECTION('',(0.,1.,3.46944695195361E-017));
#478=DIRECTION('',(0.,3.59440882112556E-017,-1.));
#479=DIRECTION('',(0.,1.,0.));
#480=DIRECTION('',(0.,3.59440882112556E-017,-1.));
#481=DIRECTION('',(0.,-1.,-3.46944695195361E-017));
#482=DIRECTION('',(0.,3.59440882112556E-017,-1.));
#483=DIRECTION('',(0.,1.,0.));
#484=DIRECTION('',(0.,3.59440882112556E-017,-1.));
#485=DIRECTION('',(0.,-1.,0.));
#486=DIRECTION('',(0.,3.59440882112556E-017,-1.));
#487=DIRECTION('',(0.,1.,0.));
#488=DIRECTION('',(0.,3.59440882112556E-017,-1.));
#489=DIRECTION('',(0.,-1.,-3.64291929955129E-017));
#490=DIRECTION('',(0.,3.59440882112556E-017,-1.));
#491=DIRECTION('',(0.,1.,0.));
#492=DIRECTION('',(0.,-3.59440882112556E-017,1.));
#493=DIRECTION('',(0.,1.,-5.63289027744315E-017));
#494=DIRECTION('',(0.,3.59440882112556E-017,-1.));
#495=DIRECTION('',(0.,1.,0.));
#496=DIRECTION('',(0.,3.59440882112556E-017,-1.));
#497=DIRECTION('',(0.,-1.,0.));
#498=DIRECTION('',(0.,3.59440882112556E-017,-1.));
#499=DIRECTION('',(0.,1.,0.));
#500=DIRECTION('',(0.,3.59440882112556E-017,-1.));
#501=DIRECTION('',(0.,-1.,1.72095582934204E-018));
#502=DIRECTION('',(0.,3.59440882112556E-017,-1.));
#503=DIRECTION('',(0.,1.,0.));
#504=DIRECTION('',(0.,3.59440882112556E-017,-1.));
#505=DIRECTION('',(0.,-1.,-3.64291929955129E-017));
#506=DIRECTION('',(0.,-3.59440882112556E-017,1.));
#507=DIRECTION('',(0.,1.,8.05437141437761E-017));
#508=CARTESIAN_POINT('',(0.,0.,0.));
#509=CARTESIAN_POINT('',(0.,0.,0.));
#510=CARTESIAN_POINT('',(0.,0.,0.));
#511=CARTESIAN_POINT('',(0.,8.66971407655485E-016,-24.1));
#512=CARTESIAN_POINT('',(0.,2.39202415047919E-016,-6.65484720719705));
#513=CARTESIAN_POINT('',(0.,17.5,-6.65484720719705));
#514=CARTESIAN_POINT('',(0.,2.70330908554734E-016,-7.52087261098149));
#515=CARTESIAN_POINT('',(0.,17.,-7.52087261098148));
#516=CARTESIAN_POINT('',(0.,-2.12070120446409E-017,-6.65484720719705));
#517=CARTESIAN_POINT('',(0.,-2.90466016369669E-016,8.0810511776652));
#518=CARTESIAN_POINT('',(0.,17.5,8.0810511776652));
#519=CARTESIAN_POINT('',(0.,-9.09385431744766E-016,25.3));
#520=CARTESIAN_POINT('',(0.,-3.19221286938673E-016,8.8810511776652));
#521=CARTESIAN_POINT('',(0.,16.7,8.8810511776652));
#522=CARTESIAN_POINT('',(0.,-2.12070120446409E-017,8.0810511776652));
#523=CARTESIAN_POINT('',(0.,-3.19221286938673E-016,8.8810511776652));
#524=CARTESIAN_POINT('',(0.,11.75,8.8810511776652));
#525=CARTESIAN_POINT('',(0.,-16.7,8.8810511776652));
#526=CARTESIAN_POINT('',(0.,2.1994003623016E-016,-6.1189488223348));
#527=CARTESIAN_POINT('',(0.,11.75,-6.1189488223348));
#528=CARTESIAN_POINT('',(0.,-9.09385431744766E-016,25.3));
#529=CARTESIAN_POINT('',(0.,2.1994003623016E-016,-6.1189488223348));
#530=CARTESIAN_POINT('',(0.,9.84752086140683,-6.1189488223348));
#531=CARTESIAN_POINT('',(0.,-11.75,-6.1189488223348));
#532=CARTESIAN_POINT('',(0.,2.10447144478916E-016,-5.8548472071971));
#533=CARTESIAN_POINT('',(0.,10.,-5.8548472071971));
#534=CARTESIAN_POINT('',(0.,2.1994003623016E-016,-6.1189488223348));
#535=CARTESIAN_POINT('',(0.,1.40181944023897E-016,-3.9));
#536=CARTESIAN_POINT('',(0.,10.,-3.9));
#537=CARTESIAN_POINT('',(0.,-9.09385431744766E-016,25.3));
#538=CARTESIAN_POINT('',(0.,1.40181944023897E-016,-3.9));
#539=CARTESIAN_POINT('',(0.,8.7,-3.9));
#540=CARTESIAN_POINT('',(0.,-10.,-3.9));
#541=CARTESIAN_POINT('',(0.,5.39161323168834E-017,-1.5));
#542=CARTESIAN_POINT('',(0.,8.7,-1.5));
#543=CARTESIAN_POINT('',(0.,-9.09385431744766E-016,25.3));
#544=CARTESIAN_POINT('',(0.,5.39161323168834E-017,-1.5));
#545=CARTESIAN_POINT('',(0.,10.,-1.5));
#546=CARTESIAN_POINT('',(0.,-8.7,-1.5));
#547=CARTESIAN_POINT('',(0.,0.,-1.73472347597681E-015));
#548=CARTESIAN_POINT('',(0.,10.,-1.73472347597681E-015));
#549=CARTESIAN_POINT('',(0.,-9.09385431744766E-016,25.3));
#550=CARTESIAN_POINT('',(0.,-2.69580661584416E-016,7.5));
#551=CARTESIAN_POINT('',(0.,8.94594373973206,7.5));
#552=CARTESIAN_POINT('',(0.,0.,-1.73472347597681E-015));
#553=CARTESIAN_POINT('',(0.,-2.93499328838472E-016,8.1654409235109));
#554=CARTESIAN_POINT('',(0.,8.54947384514112,8.1654409235109));
#555=CARTESIAN_POINT('',(0.,-1.75593048802145E-015,8.304614024471));
#556=CARTESIAN_POINT('',(0.,-5.66157318101134E-016,15.751055215913));
#557=CARTESIAN_POINT('',(0.,7.48338528075655,15.751055215913));
#558=CARTESIAN_POINT('',(0.,-2.93499328838472E-016,8.1654409235109));
#559=CARTESIAN_POINT('',(0.,-5.93077455485717E-016,16.5));
#560=CARTESIAN_POINT('',(0.,7.68107622741056,16.5));
#561=CARTESIAN_POINT('',(0.,-1.75593048802145E-015,15.8902283168731));
#562=CARTESIAN_POINT('',(0.,-8.91439281708415E-016,24.8007203985569));
#563=CARTESIAN_POINT('',(0.,6.51448605396619,24.8007203985569));
#564=CARTESIAN_POINT('',(0.,-5.93077455485717E-016,16.5));
#565=CARTESIAN_POINT('',(0.,-9.09385431744768E-016,25.3));
#566=CARTESIAN_POINT('',(0.,5.94013057409611,25.3));
#567=CARTESIAN_POINT('',(0.,-8.91439281708415E-016,24.8007203985569));
#568=CARTESIAN_POINT('',(0.,-5.94013057409611,25.3));
#569=CARTESIAN_POINT('',(0.,8.66971407655485E-016,-24.1));
#570=CARTESIAN_POINT('',(0.,7.7,-24.1));
#571=CARTESIAN_POINT('',(0.,8.66971407655484E-016,-24.1));
#572=CARTESIAN_POINT('',(0.,3.48657655649179E-016,-9.70000000000001));
#573=CARTESIAN_POINT('',(0.,7.7,-9.70000000000001));
#574=CARTESIAN_POINT('',(0.,-9.09385431744766E-016,25.3));
#575=CARTESIAN_POINT('',(0.,3.48657655649179E-016,-9.70000000000001));
#576=CARTESIAN_POINT('',(0.,7.78,-9.70000000000001));
#577=CARTESIAN_POINT('',(0.,-7.7,-9.70000000000001));
#578=CARTESIAN_POINT('',(0.,3.34961118506179E-016,-9.31894882233482));
#579=CARTESIAN_POINT('',(0.,8.00000000000002,-9.31894882233482));
#580=CARTESIAN_POINT('',(0.,3.48657655649179E-016,-9.70000000000001));
#581=CARTESIAN_POINT('',(0.,3.52933162611806E-016,-9.81894882233481));
#582=CARTESIAN_POINT('',(0.,8.,-9.81894882233481));
#583=CARTESIAN_POINT('',(0.,-9.09385431744766E-016,25.3));
#584=CARTESIAN_POINT('',(0.,3.63716389075183E-016,-10.1189488223348));
#585=CARTESIAN_POINT('',(0.,8.3,-10.1189488223348));
#586=CARTESIAN_POINT('',(0.,3.52933162611806E-016,-9.81894882233481));
#587=CARTESIAN_POINT('',(0.,3.63716389075183E-016,-10.1189488223348));
#588=CARTESIAN_POINT('',(0.,12.5,-10.1189488223348));
#589=CARTESIAN_POINT('',(0.,-8.3,-10.1189488223348));
#590=CARTESIAN_POINT('',(0.,3.63716389075183E-016,-10.1189488223348));
#591=MECHANICAL_DESIGN_GEOMETRIC_PRESENTATION_REPRESENTATION('',(#321,#322,
#323,#324),#592);
#592=(
GEOMETRIC_REPRESENTATION_CONTEXT(3)
GLOBAL_UNCERTAINTY_ASSIGNED_CONTEXT((#593))
GLOBAL_UNIT_ASSIGNED_CONTEXT((#599,#595,#594))
REPRESENTATION_CONTEXT('1493814582471','TOP_LEVEL_ASSEMBLY_PART')
);
#593=UNCERTAINTY_MEASURE_WITH_UNIT(LENGTH_MEASURE(2.E-005),#599,
'DISTANCE_ACCURACY_VALUE','Maximum Tolerance applied to model');
#594=(
NAMED_UNIT(*)
SI_UNIT($,.STERADIAN.)
SOLID_ANGLE_UNIT()
);
#595=(
CONVERSION_BASED_UNIT('DEGREE',#597)
NAMED_UNIT(#596)
PLANE_ANGLE_UNIT()
);
#596=DIMENSIONAL_EXPONENTS(0.,0.,0.,0.,0.,0.,0.);
#597=PLANE_ANGLE_MEASURE_WITH_UNIT(PLANE_ANGLE_MEASURE(0.0174532925),#598);
#598=(
NAMED_UNIT(*)
PLANE_ANGLE_UNIT()
SI_UNIT($,.RADIAN.)
);
#599=(
LENGTH_UNIT()
NAMED_UNIT(*)
SI_UNIT(.MILLI.,.METRE.)
);
ENDSEC;
END-ISO-10303-21;
