ISO-10303-21;
HEADER;
FILE_DESCRIPTION(
/* description */ ('3-D model version:1'),
/* implementation_level */ '2;1');
FILE_NAME(
/* name */ '392.55EH-4025062',
/* time_stamp */ '2016-12-02T13:56:27',
/* author */ ('InteractiveCad'),
/* organization */ ('AB Sandvik Coromant'),
/* preprocessor_version */ 'ST-DEVELOPER v11',
/* originating_system */ 'SIEMENS UGS NX 6.0',
/* authorization */ '');
FILE_SCHEMA(('AUTOMOTIVE_DESIGN'));
ENDSEC;
DATA;
#10=SHAPE_REPRESENTATION_RELATIONSHIP('None','relationship between 392.55EH_4025062uno_stp-None and 392.55EH_4025062\X\0Duno_stp-None',
     #22,#11);
#11=ADVANCED_BREP_SHAPE_REPRESENTATION('392.55EH_4025062uno_stp-None',(#32),#405);
#12=SHAPE_DEFINITION_REPRESENTATION(#13,#22);
#13=PRODUCT_DEFINITION_SHAPE('','',#14);
#14=PRODUCT_DEFINITION(' ','',#16,#15);
#15=PRODUCT_DEFINITION_CONTEXT('part definition',#21,'design');
#16=PRODUCT_DEFINITION_FORMATION_WITH_SPECIFIED_SOURCE(' ',' ',#18,.NOT_KNOWN.);
#17=PRODUCT_RELATED_PRODUCT_CATEGORY('part','',(#18));
#18=PRODUCT('392.55EH_4025062uno_stp','392.55EH_4025062uno_stp',' ',(#19));
#19=PRODUCT_CONTEXT(' ',#21,'mechanical');
#20=APPLICATION_PROTOCOL_DEFINITION('international standard','automotive_design',
     2001,#21);
#21=APPLICATION_CONTEXT('core data for automotive mechanical design processes');
#22=SHAPE_REPRESENTATION('392.55EH_4025062uno_stp-None',(#234),#405);
#23=PRESENTATION_LAYER_ASSIGNMENT('1','Layer 1',(#32));
#24=STYLED_ITEM('',(#25),#32);
#25=PRESENTATION_STYLE_ASSIGNMENT((#26));
#26=SURFACE_STYLE_USAGE(.BOTH.,#27);
#27=SURFACE_SIDE_STYLE('',(#28));
#28=SURFACE_STYLE_FILL_AREA(#29);
#29=FILL_AREA_STYLE('',(#30));
#30=FILL_AREA_STYLE_COLOUR('',#31);
#31=COLOUR_RGB('TLS_NOCUT',0.499992370489052,0.499992370489052,0.499992370489052);
#32=MANIFOLD_SOLID_BREP('NOCUT',#33);
#33=CLOSED_SHELL('',(#82,#83,#84,#85,#86,#87,#88,#89,#90,#91,#92,#93,#94,#95,#96,
     #97,#98,#99,#100));
#34=CONICAL_SURFACE('',#244,15.7278389332207,74.6667824389082);
#35=CONICAL_SURFACE('',#250,31.4885,60.125000000001);
#36=CONICAL_SURFACE('',#258,27.1153671315879,60.1250000000001);
#37=CONICAL_SURFACE('',#268,22.0,30.0000000000001);
#38=CONICAL_SURFACE('',#270,22.2833388353814,8.29791666666664);
#39=TOROIDAL_SURFACE('',#242,17.05,5.0);
#40=TOROIDAL_SURFACE('',#246,30.8885,0.6);
#41=TOROIDAL_SURFACE('',#264,22.6,0.6);
#42=TOROIDAL_SURFACE('',#271,11.8218677822405,1.0);
#43=CYLINDRICAL_SURFACE('',#240,12.05);
#44=CYLINDRICAL_SURFACE('',#248,31.4885);
#45=CYLINDRICAL_SURFACE('',#254,26.5);
#46=CYLINDRICAL_SURFACE('',#260,31.4884999999999);
#47=CYLINDRICAL_SURFACE('',#266,22.0);
#48=FACE_BOUND('',#110,.T.);
#49=FACE_BOUND('',#111,.T.);
#50=FACE_BOUND('',#112,.T.);
#51=FACE_BOUND('',#113,.T.);
#52=FACE_BOUND('',#114,.T.);
#53=FACE_BOUND('',#115,.T.);
#54=FACE_BOUND('',#116,.T.);
#55=FACE_BOUND('',#117,.T.);
#56=FACE_BOUND('',#118,.T.);
#57=FACE_BOUND('',#119,.T.);
#58=FACE_BOUND('',#120,.T.);
#59=FACE_BOUND('',#121,.T.);
#60=FACE_BOUND('',#122,.T.);
#61=FACE_BOUND('',#123,.T.);
#62=FACE_BOUND('',#124,.T.);
#63=FACE_BOUND('',#125,.T.);
#64=FACE_BOUND('',#126,.T.);
#65=FACE_BOUND('',#127,.T.);
#66=FACE_BOUND('',#128,.T.);
#67=FACE_BOUND('',#129,.T.);
#68=FACE_BOUND('',#130,.T.);
#69=FACE_BOUND('',#131,.T.);
#70=FACE_BOUND('',#132,.T.);
#71=FACE_BOUND('',#133,.T.);
#72=FACE_BOUND('',#134,.T.);
#73=FACE_BOUND('',#135,.T.);
#74=FACE_BOUND('',#136,.T.);
#75=FACE_BOUND('',#137,.T.);
#76=FACE_BOUND('',#138,.T.);
#77=FACE_BOUND('',#139,.T.);
#78=FACE_BOUND('',#140,.T.);
#79=FACE_BOUND('',#141,.T.);
#80=FACE_BOUND('',#142,.T.);
#81=FACE_BOUND('',#143,.T.);
#82=ADVANCED_FACE('',(#106),#101,.F.);
#83=ADVANCED_FACE('',(#107),#102,.F.);
#84=ADVANCED_FACE('',(#48,#49),#43,.T.);
#85=ADVANCED_FACE('',(#50,#51),#39,.F.);
#86=ADVANCED_FACE('',(#52,#53),#34,.T.);
#87=ADVANCED_FACE('',(#54,#55),#40,.T.);
#88=ADVANCED_FACE('',(#56,#57),#44,.T.);
#89=ADVANCED_FACE('',(#58,#59),#35,.T.);
#90=ADVANCED_FACE('',(#60,#61),#103,.F.);
#91=ADVANCED_FACE('',(#62,#63),#45,.T.);
#92=ADVANCED_FACE('',(#64,#65),#104,.F.);
#93=ADVANCED_FACE('',(#66,#67),#36,.T.);
#94=ADVANCED_FACE('',(#68,#69),#46,.T.);
#95=ADVANCED_FACE('',(#70,#71),#105,.F.);
#96=ADVANCED_FACE('',(#72,#73),#41,.F.);
#97=ADVANCED_FACE('',(#74,#75),#47,.T.);
#98=ADVANCED_FACE('',(#76,#77),#37,.T.);
#99=ADVANCED_FACE('',(#78,#79),#38,.T.);
#100=ADVANCED_FACE('',(#80,#81),#42,.T.);
#101=PLANE('',#236);
#102=PLANE('',#238);
#103=PLANE('',#252);
#104=PLANE('',#256);
#105=PLANE('',#262);
#106=FACE_OUTER_BOUND('',#108,.T.);
#107=FACE_OUTER_BOUND('',#109,.T.);
#108=EDGE_LOOP('',(#144));
#109=EDGE_LOOP('',(#145));
#110=EDGE_LOOP('',(#146));
#111=EDGE_LOOP('',(#147));
#112=EDGE_LOOP('',(#148));
#113=EDGE_LOOP('',(#149));
#114=EDGE_LOOP('',(#150));
#115=EDGE_LOOP('',(#151));
#116=EDGE_LOOP('',(#152));
#117=EDGE_LOOP('',(#153));
#118=EDGE_LOOP('',(#154));
#119=EDGE_LOOP('',(#155));
#120=EDGE_LOOP('',(#156));
#121=EDGE_LOOP('',(#157));
#122=EDGE_LOOP('',(#158));
#123=EDGE_LOOP('',(#159));
#124=EDGE_LOOP('',(#160));
#125=EDGE_LOOP('',(#161));
#126=EDGE_LOOP('',(#162));
#127=EDGE_LOOP('',(#163));
#128=EDGE_LOOP('',(#164));
#129=EDGE_LOOP('',(#165));
#130=EDGE_LOOP('',(#166));
#131=EDGE_LOOP('',(#167));
#132=EDGE_LOOP('',(#168));
#133=EDGE_LOOP('',(#169));
#134=EDGE_LOOP('',(#170));
#135=EDGE_LOOP('',(#171));
#136=EDGE_LOOP('',(#172));
#137=EDGE_LOOP('',(#173));
#138=EDGE_LOOP('',(#174));
#139=EDGE_LOOP('',(#175));
#140=EDGE_LOOP('',(#176));
#141=EDGE_LOOP('',(#177));
#142=EDGE_LOOP('',(#178));
#143=EDGE_LOOP('',(#179));
#144=ORIENTED_EDGE('',*,*,#198,.T.);
#145=ORIENTED_EDGE('',*,*,#199,.F.);
#146=ORIENTED_EDGE('',*,*,#200,.F.);
#147=ORIENTED_EDGE('',*,*,#199,.T.);
#148=ORIENTED_EDGE('',*,*,#201,.F.);
#149=ORIENTED_EDGE('',*,*,#200,.T.);
#150=ORIENTED_EDGE('',*,*,#202,.F.);
#151=ORIENTED_EDGE('',*,*,#201,.T.);
#152=ORIENTED_EDGE('',*,*,#203,.F.);
#153=ORIENTED_EDGE('',*,*,#202,.T.);
#154=ORIENTED_EDGE('',*,*,#204,.F.);
#155=ORIENTED_EDGE('',*,*,#203,.T.);
#156=ORIENTED_EDGE('',*,*,#205,.F.);
#157=ORIENTED_EDGE('',*,*,#204,.T.);
#158=ORIENTED_EDGE('',*,*,#206,.F.);
#159=ORIENTED_EDGE('',*,*,#205,.T.);
#160=ORIENTED_EDGE('',*,*,#207,.F.);
#161=ORIENTED_EDGE('',*,*,#206,.T.);
#162=ORIENTED_EDGE('',*,*,#208,.F.);
#163=ORIENTED_EDGE('',*,*,#207,.T.);
#164=ORIENTED_EDGE('',*,*,#209,.F.);
#165=ORIENTED_EDGE('',*,*,#208,.T.);
#166=ORIENTED_EDGE('',*,*,#210,.F.);
#167=ORIENTED_EDGE('',*,*,#209,.T.);
#168=ORIENTED_EDGE('',*,*,#211,.F.);
#169=ORIENTED_EDGE('',*,*,#210,.T.);
#170=ORIENTED_EDGE('',*,*,#212,.F.);
#171=ORIENTED_EDGE('',*,*,#211,.T.);
#172=ORIENTED_EDGE('',*,*,#213,.F.);
#173=ORIENTED_EDGE('',*,*,#212,.T.);
#174=ORIENTED_EDGE('',*,*,#214,.F.);
#175=ORIENTED_EDGE('',*,*,#213,.T.);
#176=ORIENTED_EDGE('',*,*,#215,.F.);
#177=ORIENTED_EDGE('',*,*,#214,.T.);
#178=ORIENTED_EDGE('',*,*,#198,.F.);
#179=ORIENTED_EDGE('',*,*,#215,.T.);
#180=VERTEX_POINT('',#350);
#181=VERTEX_POINT('',#353);
#182=VERTEX_POINT('',#356);
#183=VERTEX_POINT('',#359);
#184=VERTEX_POINT('',#362);
#185=VERTEX_POINT('',#365);
#186=VERTEX_POINT('',#368);
#187=VERTEX_POINT('',#371);
#188=VERTEX_POINT('',#374);
#189=VERTEX_POINT('',#377);
#190=VERTEX_POINT('',#380);
#191=VERTEX_POINT('',#383);
#192=VERTEX_POINT('',#386);
#193=VERTEX_POINT('',#389);
#194=VERTEX_POINT('',#392);
#195=VERTEX_POINT('',#395);
#196=VERTEX_POINT('',#398);
#197=VERTEX_POINT('',#401);
#198=EDGE_CURVE('',#180,#180,#216,.T.);
#199=EDGE_CURVE('',#181,#181,#217,.T.);
#200=EDGE_CURVE('',#182,#182,#218,.T.);
#201=EDGE_CURVE('',#183,#183,#219,.T.);
#202=EDGE_CURVE('',#184,#184,#220,.T.);
#203=EDGE_CURVE('',#185,#185,#221,.T.);
#204=EDGE_CURVE('',#186,#186,#222,.T.);
#205=EDGE_CURVE('',#187,#187,#223,.T.);
#206=EDGE_CURVE('',#188,#188,#224,.T.);
#207=EDGE_CURVE('',#189,#189,#225,.T.);
#208=EDGE_CURVE('',#190,#190,#226,.T.);
#209=EDGE_CURVE('',#191,#191,#227,.T.);
#210=EDGE_CURVE('',#192,#192,#228,.T.);
#211=EDGE_CURVE('',#193,#193,#229,.T.);
#212=EDGE_CURVE('',#194,#194,#230,.T.);
#213=EDGE_CURVE('',#195,#195,#231,.T.);
#214=EDGE_CURVE('',#196,#196,#232,.T.);
#215=EDGE_CURVE('',#197,#197,#233,.T.);
#216=CIRCLE('',#235,11.8218677822405);
#217=CIRCLE('',#237,12.05);
#218=CIRCLE('',#239,12.05);
#219=CIRCLE('',#241,15.7278389332207);
#220=CIRCLE('',#243,30.9516322278861);
#221=CIRCLE('',#245,31.4885);
#222=CIRCLE('',#247,31.4885);
#223=CIRCLE('',#249,27.1153671315879);
#224=CIRCLE('',#251,26.5);
#225=CIRCLE('',#253,26.5);
#226=CIRCLE('',#255,27.1153671315879);
#227=CIRCLE('',#257,31.4884999999999);
#228=CIRCLE('',#259,31.4885);
#229=CIRCLE('',#261,22.6);
#230=CIRCLE('',#263,22.0);
#231=CIRCLE('',#265,22.0);
#232=CIRCLE('',#267,22.2833388353814);
#233=CIRCLE('',#269,12.811398819595);
#234=AXIS2_PLACEMENT_3D('',#348,#272,#273);
#235=AXIS2_PLACEMENT_3D('',#349,#274,#275);
#236=AXIS2_PLACEMENT_3D('',#351,#276,#277);
#237=AXIS2_PLACEMENT_3D('',#352,#278,#279);
#238=AXIS2_PLACEMENT_3D('',#354,#280,#281);
#239=AXIS2_PLACEMENT_3D('',#355,#282,#283);
#240=AXIS2_PLACEMENT_3D('',#357,#284,#285);
#241=AXIS2_PLACEMENT_3D('',#358,#286,#287);
#242=AXIS2_PLACEMENT_3D('',#360,#288,#289);
#243=AXIS2_PLACEMENT_3D('',#361,#290,#291);
#244=AXIS2_PLACEMENT_3D('',#363,#292,#293);
#245=AXIS2_PLACEMENT_3D('',#364,#294,#295);
#246=AXIS2_PLACEMENT_3D('',#366,#296,#297);
#247=AXIS2_PLACEMENT_3D('',#367,#298,#299);
#248=AXIS2_PLACEMENT_3D('',#369,#300,#301);
#249=AXIS2_PLACEMENT_3D('',#370,#302,#303);
#250=AXIS2_PLACEMENT_3D('',#372,#304,#305);
#251=AXIS2_PLACEMENT_3D('',#373,#306,#307);
#252=AXIS2_PLACEMENT_3D('',#375,#308,#309);
#253=AXIS2_PLACEMENT_3D('',#376,#310,#311);
#254=AXIS2_PLACEMENT_3D('',#378,#312,#313);
#255=AXIS2_PLACEMENT_3D('',#379,#314,#315);
#256=AXIS2_PLACEMENT_3D('',#381,#316,#317);
#257=AXIS2_PLACEMENT_3D('',#382,#318,#319);
#258=AXIS2_PLACEMENT_3D('',#384,#320,#321);
#259=AXIS2_PLACEMENT_3D('',#385,#322,#323);
#260=AXIS2_PLACEMENT_3D('',#387,#324,#325);
#261=AXIS2_PLACEMENT_3D('',#388,#326,#327);
#262=AXIS2_PLACEMENT_3D('',#390,#328,#329);
#263=AXIS2_PLACEMENT_3D('',#391,#330,#331);
#264=AXIS2_PLACEMENT_3D('',#393,#332,#333);
#265=AXIS2_PLACEMENT_3D('',#394,#334,#335);
#266=AXIS2_PLACEMENT_3D('',#396,#336,#337);
#267=AXIS2_PLACEMENT_3D('',#397,#338,#339);
#268=AXIS2_PLACEMENT_3D('',#399,#340,#341);
#269=AXIS2_PLACEMENT_3D('',#400,#342,#343);
#270=AXIS2_PLACEMENT_3D('',#402,#344,#345);
#271=AXIS2_PLACEMENT_3D('',#403,#346,#347);
#272=DIRECTION('',(0.0,0.0,1.0));
#273=DIRECTION('',(1.0,0.0,0.0));
#274=DIRECTION('',(0.0,0.0,1.0));
#275=DIRECTION('',(1.0,0.0,0.0));
#276=DIRECTION('',(0.0,0.0,-1.0));
#277=DIRECTION('',(-1.0,0.0,0.0));
#278=DIRECTION('',(0.0,0.0,1.0));
#279=DIRECTION('',(1.0,0.0,0.0));
#280=DIRECTION('',(0.0,0.0,1.0));
#281=DIRECTION('',(1.0,0.0,0.0));
#282=DIRECTION('',(0.0,0.0,1.0));
#283=DIRECTION('',(1.0,0.0,0.0));
#284=DIRECTION('',(0.0,0.0,1.0));
#285=DIRECTION('',(1.0,0.0,0.0));
#286=DIRECTION('',(0.0,0.0,1.0));
#287=DIRECTION('',(1.0,0.0,0.0));
#288=DIRECTION('',(0.0,0.0,1.0));
#289=DIRECTION('',(1.0,0.0,0.0));
#290=DIRECTION('',(0.0,0.0,1.0));
#291=DIRECTION('',(1.0,0.0,0.0));
#292=DIRECTION('',(0.0,0.0,1.0));
#293=DIRECTION('',(1.0,0.0,-7.57768633852867E-18));
#294=DIRECTION('',(0.0,0.0,1.0));
#295=DIRECTION('',(1.0,0.0,0.0));
#296=DIRECTION('',(0.0,0.0,1.0));
#297=DIRECTION('',(1.0,0.0,0.0));
#298=DIRECTION('',(0.0,0.0,1.0));
#299=DIRECTION('',(1.0,0.0,0.0));
#300=DIRECTION('',(0.0,0.0,1.0));
#301=DIRECTION('',(1.0,0.0,0.0));
#302=DIRECTION('',(0.0,0.0,1.0));
#303=DIRECTION('',(1.0,0.0,0.0));
#304=DIRECTION('',(0.0,0.0,-1.0));
#305=DIRECTION('',(-1.0,0.0,-3.13215484975429E-17));
#306=DIRECTION('',(0.0,0.0,1.0));
#307=DIRECTION('',(1.0,0.0,0.0));
#308=DIRECTION('',(0.0,0.0,-1.0));
#309=DIRECTION('',(-1.0,0.0,0.0));
#310=DIRECTION('',(0.0,0.0,1.0));
#311=DIRECTION('',(1.0,0.0,0.0));
#312=DIRECTION('',(0.0,0.0,1.0));
#313=DIRECTION('',(1.0,0.0,0.0));
#314=DIRECTION('',(0.0,0.0,1.0));
#315=DIRECTION('',(1.0,0.0,0.0));
#316=DIRECTION('',(0.0,0.0,1.0));
#317=DIRECTION('',(1.0,0.0,0.0));
#318=DIRECTION('',(0.0,0.0,1.0));
#319=DIRECTION('',(1.0,0.0,0.0));
#320=DIRECTION('',(0.0,0.0,1.0));
#321=DIRECTION('',(1.0,0.0,-9.81219541415829E-19));
#322=DIRECTION('',(0.0,0.0,1.0));
#323=DIRECTION('',(1.0,0.0,0.0));
#324=DIRECTION('',(0.0,0.0,1.0));
#325=DIRECTION('',(1.0,0.0,0.0));
#326=DIRECTION('',(0.0,0.0,1.0));
#327=DIRECTION('',(1.0,0.0,0.0));
#328=DIRECTION('',(0.0,0.0,-1.0));
#329=DIRECTION('',(-1.0,0.0,0.0));
#330=DIRECTION('',(0.0,0.0,1.0));
#331=DIRECTION('',(1.0,0.0,0.0));
#332=DIRECTION('',(0.0,0.0,1.0));
#333=DIRECTION('',(1.0,0.0,0.0));
#334=DIRECTION('',(0.0,0.0,1.0));
#335=DIRECTION('',(1.0,0.0,0.0));
#336=DIRECTION('',(0.0,0.0,1.0));
#337=DIRECTION('',(1.0,0.0,0.0));
#338=DIRECTION('',(0.0,0.0,1.0));
#339=DIRECTION('',(1.0,0.0,0.0));
#340=DIRECTION('',(0.0,0.0,1.0));
#341=DIRECTION('',(1.0,0.0,4.63094404765293E-17));
#342=DIRECTION('',(0.0,0.0,1.0));
#343=DIRECTION('',(1.0,0.0,0.0));
#344=DIRECTION('',(0.0,0.0,-1.0));
#345=DIRECTION('',(-1.0,0.0,2.06354495607875E-16));
#346=DIRECTION('',(0.0,0.0,1.0));
#347=DIRECTION('',(1.0,0.0,0.0));
#348=CARTESIAN_POINT('',(0.0,0.0,0.0));
#349=CARTESIAN_POINT('',(0.0,0.0,65.4));
#350=CARTESIAN_POINT('',(11.8218677822405,0.0,65.4));
#351=CARTESIAN_POINT('',(0.0,10.00675,65.4));
#352=CARTESIAN_POINT('',(0.0,0.0,-62.0));
#353=CARTESIAN_POINT('',(12.05,0.0,-62.0));
#354=CARTESIAN_POINT('',(0.0,0.0,-62.0));
#355=CARTESIAN_POINT('',(0.0,0.0,-35.9929374257812));
#356=CARTESIAN_POINT('',(12.05,0.0,-35.9929374257812));
#357=CARTESIAN_POINT('',(0.0,0.0,0.0));
#358=CARTESIAN_POINT('',(0.0,0.0,-31.170916053629));
#359=CARTESIAN_POINT('',(15.7278389332207,0.0,-31.170916053629));
#360=CARTESIAN_POINT('',(0.0,0.0,-35.9929374257812));
#361=CARTESIAN_POINT('',(0.0,0.0,-26.9966693571813));
#362=CARTESIAN_POINT('',(30.9516322278861,0.0,-26.9966693571813));
#363=CARTESIAN_POINT('',(0.0,0.0,-31.170916053629));
#364=CARTESIAN_POINT('',(0.0,0.0,-26.4));
#365=CARTESIAN_POINT('',(31.4885,0.0,-26.4));
#366=CARTESIAN_POINT('',(0.0,0.0,-26.4));
#367=CARTESIAN_POINT('',(0.0,0.0,-21.6121244936906));
#368=CARTESIAN_POINT('',(31.4885,0.0,-21.6121244936906));
#369=CARTESIAN_POINT('',(0.0,0.0,0.0));
#370=CARTESIAN_POINT('',(0.0,0.0,-19.1));
#371=CARTESIAN_POINT('',(27.1153671315879,0.0,-19.1));
#372=CARTESIAN_POINT('',(0.0,0.0,-21.6121244936906));
#373=CARTESIAN_POINT('',(0.0,0.0,-19.1));
#374=CARTESIAN_POINT('',(26.5,0.0,-19.1));
#375=CARTESIAN_POINT('',(0.0,27.1153671315879,-19.1));
#376=CARTESIAN_POINT('',(0.0,0.0,-14.1));
#377=CARTESIAN_POINT('',(26.5,0.0,-14.1));
#378=CARTESIAN_POINT('',(0.0,0.0,0.0));
#379=CARTESIAN_POINT('',(0.0,0.0,-14.1));
#380=CARTESIAN_POINT('',(27.1153671315879,0.0,-14.1));
#381=CARTESIAN_POINT('',(0.0,26.5,-14.1));
#382=CARTESIAN_POINT('',(0.0,0.0,-11.5878755063094));
#383=CARTESIAN_POINT('',(31.4884999999999,0.0,-11.5878755063094));
#384=CARTESIAN_POINT('',(0.0,0.0,-14.1));
#385=CARTESIAN_POINT('',(0.0,0.0,-2.0));
#386=CARTESIAN_POINT('',(31.4885,0.0,-2.0));
#387=CARTESIAN_POINT('',(0.0,0.0,0.0));
#388=CARTESIAN_POINT('',(0.0,0.0,-2.0));
#389=CARTESIAN_POINT('',(22.6,0.0,-2.0));
#390=CARTESIAN_POINT('',(0.0,31.4885,-2.0));
#391=CARTESIAN_POINT('',(0.0,0.0,-1.4));
#392=CARTESIAN_POINT('',(22.0,0.0,-1.4));
#393=CARTESIAN_POINT('',(0.0,0.0,-1.4));
#394=CARTESIAN_POINT('',(0.0,0.0,-0.890757258637992));
#395=CARTESIAN_POINT('',(22.0,0.0,-0.890757258637992));
#396=CARTESIAN_POINT('',(0.0,0.0,0.0));
#397=CARTESIAN_POINT('',(0.0,0.0,-0.399999999999991));
#398=CARTESIAN_POINT('',(22.2833388353814,0.0,-0.399999999999991));
#399=CARTESIAN_POINT('',(0.0,0.0,-0.890757258637992));
#400=CARTESIAN_POINT('',(0.0,0.0,64.5443202207325));
#401=CARTESIAN_POINT('',(12.811398819595,0.0,64.5443202207325));
#402=CARTESIAN_POINT('',(0.0,0.0,-0.399999999999991));
#403=CARTESIAN_POINT('',(0.0,0.0,64.4));
#404=MECHANICAL_DESIGN_GEOMETRIC_PRESENTATION_REPRESENTATION('',(#24),#405);
#405=(GEOMETRIC_REPRESENTATION_CONTEXT(3)GLOBAL_UNCERTAINTY_ASSIGNED_CONTEXT((#406))
     GLOBAL_UNIT_ASSIGNED_CONTEXT((#412,#408,#407))REPRESENTATION_CONTEXT('392','TOP_LEVEL_ASSEMBLY_PART'));
#406=UNCERTAINTY_MEASURE_WITH_UNIT(LENGTH_MEASURE(2.0E-5),#412,'DISTANCE_ACCURACY_VALUE',
     'Maximum Tolerance applied to model');
#407=(NAMED_UNIT(*)SI_UNIT($,.STERADIAN.)SOLID_ANGLE_UNIT());
#408=(CONVERSION_BASED_UNIT('DEGREE',#410)NAMED_UNIT(*)PLANE_ANGLE_UNIT());
#409=DIMENSIONAL_EXPONENTS(0.0,0.0,0.0,0.0,0.0,0.0,0.0);
#410=PLANE_ANGLE_MEASURE_WITH_UNIT(PLANE_ANGLE_MEASURE(0.0174532925),#411);
#411=(NAMED_UNIT(*)PLANE_ANGLE_UNIT()SI_UNIT($,.RADIAN.));
#412=(LENGTH_UNIT()NAMED_UNIT(*)SI_UNIT(.MILLI.,.METRE.));
#413=CARTESIAN_POINT('',(0.0,0.0,0.0));
#414=DIRECTION('',(0.0,0.0,1.0));
#415=DIRECTION('',(1.0,0.0,0.0));
#416=AXIS2_PLACEMENT_3D('PCS',#413,#414,#415);
#417=CARTESIAN_POINT('',(0.0,0.0,0.0));
#418=DIRECTION('',(0.0,0.0,1.0));
#419=DIRECTION('',(1.0,0.0,0.0));
#420=AXIS2_PLACEMENT_3D('MCS',#417,#418,#419);
#421=CARTESIAN_POINT('',(0.0,0.0,-62.0));
#422=DIRECTION('',(0.0,0.0,1.0));
#423=DIRECTION('',(1.0,0.0,0.0));
#424=AXIS2_PLACEMENT_3D('CSW',#421,#422,#423);
#425=CONSTRUCTIVE_GEOMETRY_REPRESENTATION('supplemental geometry',(#416,#420,#424),
     #405);
#426=CONSTRUCTIVE_GEOMETRY_REPRESENTATION_RELATIONSHIP('supplemental geometry',$,
     #22,#425);
ENDSEC;
END-ISO-10303-21;
