ISO-10303-21;
HEADER;
/* Generated by software containing ST-Developer
 * from STEP Tools, Inc. (www.steptools.com) 
 */
/* OPTION: using custom schema-name function */

FILE_DESCRIPTION(
/* description */ (''),
/* implementation_level */ '2;1');

FILE_NAME(
/* name */ '1493025717063.stp',
/* time_stamp */ '2017-04-24T11:22:00+02:00',
/* author */ (''),
/* organization */ ('SMS'),
/* preprocessor_version */ 'ST-DEVELOPER v15',
/* originating_system */ 'SIEMENS PLM Software NX 8.5',
/* authorisation */ '');

FILE_SCHEMA (('AUTOMOTIVE_DESIGN { 1 0 10303 214 3 1 1 1 }'));
ENDSEC;

DATA;
#10=CONSTRUCTIVE_GEOMETRY_REPRESENTATION_RELATIONSHIP(
'supplemental geometry','',#26,#11);
#11=CONSTRUCTIVE_GEOMETRY_REPRESENTATION('supplemental geometry',(#325,
#326,#327,#328),#559);
#12=GEOMETRICALLY_BOUNDED_WIREFRAME_SHAPE_REPRESENTATION(
'392.55514-3020052-636200737618177235-1-None',(#27),#559);
#13=SHAPE_REPRESENTATION_RELATIONSHIP('None',
'relationship between 392.55514-3020052-636200737618177235-1-None and 
392.55514-3020052-636200737618177235-1-None',#26,#15);
#14=SHAPE_REPRESENTATION_RELATIONSHIP('None',
'relationship between 392.55514-3020052-636200737618177235-1-None and 
392.55514-3020052-636200737618177235-1-None',#26,#12);
#15=ADVANCED_BREP_SHAPE_REPRESENTATION(
'392.55514-3020052-636200737618177235-1-None',(#33),#559);
#16=SHAPE_DEFINITION_REPRESENTATION(#17,#26);
#17=PRODUCT_DEFINITION_SHAPE('','',#18);
#18=PRODUCT_DEFINITION(' ','',#20,#19);
#19=PRODUCT_DEFINITION_CONTEXT('part definition',#25,'design');
#20=PRODUCT_DEFINITION_FORMATION_WITH_SPECIFIED_SOURCE(' ',' ',#22,
 .NOT_KNOWN.);
#21=PRODUCT_RELATED_PRODUCT_CATEGORY('part','',(#22));
#22=PRODUCT('392.55514-3020052-636200737618177235-1',
'392.55514-3020052-636200737618177235-1',' ',(#23));
#23=PRODUCT_CONTEXT(' ',#25,'mechanical');
#24=APPLICATION_PROTOCOL_DEFINITION('international standard',
'automotive_design',2010,#25);
#25=APPLICATION_CONTEXT(
'core data for automotive mechanical design processes');
#26=SHAPE_REPRESENTATION('392.55514-3020052-636200737618177235-1-None',
(#324),#559);
#27=GEOMETRIC_CURVE_SET('None',(#481,#482,#483));
#28=SURFACE_STYLE_USAGE(.BOTH.,#29);
#29=SURFACE_SIDE_STYLE('',(#30));
#30=SURFACE_STYLE_FILL_AREA(#31);
#31=FILL_AREA_STYLE('',(#32));
#32=FILL_AREA_STYLE_COLOUR('',#323);
#33=MANIFOLD_SOLID_BREP('NOCUT',#34);
#34=CLOSED_SHELL('',(#95,#96,#97,#98,#99,#100,#101,#102,#103,#104,#105,
#106,#107,#108,#109,#110,#111,#112,#113,#114,#115,#116,#117,#118));
#35=CYLINDRICAL_SURFACE('',#338,15.575);
#36=CYLINDRICAL_SURFACE('',#342,22.99025);
#37=CYLINDRICAL_SURFACE('',#348,19.);
#38=CYLINDRICAL_SURFACE('',#354,22.9902500000001);
#39=CYLINDRICAL_SURFACE('',#360,11.25);
#40=CYLINDRICAL_SURFACE('',#366,12.5);
#41=CYLINDRICAL_SURFACE('',#372,16.85);
#42=CONICAL_SURFACE('',#334,8.87840012107731,8.2979166666667);
#43=CONICAL_SURFACE('',#336,15.875,35.0000000000005);
#44=CONICAL_SURFACE('',#344,22.99025,60.1250000000001);
#45=CONICAL_SURFACE('',#352,19.480757323931,60.125000000001);
#46=CONICAL_SURFACE('',#364,11.2875644347018,29.9999999999997);
#47=CONICAL_SURFACE('',#374,16.85,59.9999999999999);
#48=TOROIDAL_SURFACE('',#332,8.3836346024001,0.5);
#49=TOROIDAL_SURFACE('',#358,13.25,2.);
#50=TOROIDAL_SURFACE('',#370,16.05,0.8);
#51=FACE_BOUND('',#130,.T.);
#52=FACE_BOUND('',#131,.T.);
#53=FACE_BOUND('',#132,.T.);
#54=FACE_BOUND('',#133,.T.);
#55=FACE_BOUND('',#134,.T.);
#56=FACE_BOUND('',#135,.T.);
#57=FACE_BOUND('',#136,.T.);
#58=FACE_BOUND('',#137,.T.);
#59=FACE_BOUND('',#138,.T.);
#60=FACE_BOUND('',#139,.T.);
#61=FACE_BOUND('',#140,.T.);
#62=FACE_BOUND('',#141,.T.);
#63=FACE_BOUND('',#142,.T.);
#64=FACE_BOUND('',#143,.T.);
#65=FACE_BOUND('',#144,.T.);
#66=FACE_BOUND('',#145,.T.);
#67=FACE_BOUND('',#146,.T.);
#68=FACE_BOUND('',#147,.T.);
#69=FACE_BOUND('',#148,.T.);
#70=FACE_BOUND('',#149,.T.);
#71=FACE_BOUND('',#150,.T.);
#72=FACE_BOUND('',#151,.T.);
#73=FACE_BOUND('',#152,.T.);
#74=FACE_BOUND('',#153,.T.);
#75=FACE_BOUND('',#154,.T.);
#76=FACE_BOUND('',#155,.T.);
#77=FACE_BOUND('',#156,.T.);
#78=FACE_BOUND('',#157,.T.);
#79=FACE_BOUND('',#158,.T.);
#80=FACE_BOUND('',#159,.T.);
#81=FACE_BOUND('',#160,.T.);
#82=FACE_BOUND('',#161,.T.);
#83=FACE_BOUND('',#162,.T.);
#84=FACE_BOUND('',#163,.T.);
#85=FACE_BOUND('',#164,.T.);
#86=FACE_BOUND('',#165,.T.);
#87=FACE_BOUND('',#166,.T.);
#88=FACE_BOUND('',#167,.T.);
#89=FACE_BOUND('',#168,.T.);
#90=FACE_BOUND('',#169,.T.);
#91=FACE_BOUND('',#170,.T.);
#92=FACE_BOUND('',#171,.T.);
#93=FACE_BOUND('',#172,.T.);
#94=FACE_BOUND('',#173,.T.);
#95=ADVANCED_FACE('',(#127),#119,.T.);
#96=ADVANCED_FACE('',(#51,#52),#48,.T.);
#97=ADVANCED_FACE('',(#53,#54),#42,.T.);
#98=ADVANCED_FACE('',(#55,#56),#43,.T.);
#99=ADVANCED_FACE('',(#57,#58),#35,.T.);
#100=ADVANCED_FACE('',(#59,#60),#120,.T.);
#101=ADVANCED_FACE('',(#61,#62),#36,.T.);
#102=ADVANCED_FACE('',(#63,#64),#44,.T.);
#103=ADVANCED_FACE('',(#65,#66),#121,.T.);
#104=ADVANCED_FACE('',(#67,#68),#37,.T.);
#105=ADVANCED_FACE('',(#69,#70),#122,.T.);
#106=ADVANCED_FACE('',(#71,#72),#45,.T.);
#107=ADVANCED_FACE('',(#73,#74),#38,.T.);
#108=ADVANCED_FACE('',(#75,#76),#123,.T.);
#109=ADVANCED_FACE('',(#77,#78),#49,.F.);
#110=ADVANCED_FACE('',(#79,#80),#39,.T.);
#111=ADVANCED_FACE('',(#81,#82),#124,.T.);
#112=ADVANCED_FACE('',(#83,#84),#46,.T.);
#113=ADVANCED_FACE('',(#85,#86),#40,.T.);
#114=ADVANCED_FACE('',(#87,#88),#125,.T.);
#115=ADVANCED_FACE('',(#89,#90),#50,.T.);
#116=ADVANCED_FACE('',(#91,#92),#41,.T.);
#117=ADVANCED_FACE('',(#93,#94),#47,.T.);
#118=ADVANCED_FACE('',(#128),#126,.T.);
#119=PLANE('',#330);
#120=PLANE('',#340);
#121=PLANE('',#346);
#122=PLANE('',#350);
#123=PLANE('',#356);
#124=PLANE('',#362);
#125=PLANE('',#368);
#126=PLANE('',#375);
#127=FACE_OUTER_BOUND('',#129,.T.);
#128=FACE_OUTER_BOUND('',#174,.T.);
#129=EDGE_LOOP('',(#175));
#130=EDGE_LOOP('',(#176));
#131=EDGE_LOOP('',(#177));
#132=EDGE_LOOP('',(#178));
#133=EDGE_LOOP('',(#179));
#134=EDGE_LOOP('',(#180));
#135=EDGE_LOOP('',(#181));
#136=EDGE_LOOP('',(#182));
#137=EDGE_LOOP('',(#183));
#138=EDGE_LOOP('',(#184));
#139=EDGE_LOOP('',(#185));
#140=EDGE_LOOP('',(#186));
#141=EDGE_LOOP('',(#187));
#142=EDGE_LOOP('',(#188));
#143=EDGE_LOOP('',(#189));
#144=EDGE_LOOP('',(#190));
#145=EDGE_LOOP('',(#191));
#146=EDGE_LOOP('',(#192));
#147=EDGE_LOOP('',(#193));
#148=EDGE_LOOP('',(#194));
#149=EDGE_LOOP('',(#195));
#150=EDGE_LOOP('',(#196));
#151=EDGE_LOOP('',(#197));
#152=EDGE_LOOP('',(#198));
#153=EDGE_LOOP('',(#199));
#154=EDGE_LOOP('',(#200));
#155=EDGE_LOOP('',(#201));
#156=EDGE_LOOP('',(#202));
#157=EDGE_LOOP('',(#203));
#158=EDGE_LOOP('',(#204));
#159=EDGE_LOOP('',(#205));
#160=EDGE_LOOP('',(#206));
#161=EDGE_LOOP('',(#207));
#162=EDGE_LOOP('',(#208));
#163=EDGE_LOOP('',(#209));
#164=EDGE_LOOP('',(#210));
#165=EDGE_LOOP('',(#211));
#166=EDGE_LOOP('',(#212));
#167=EDGE_LOOP('',(#213));
#168=EDGE_LOOP('',(#214));
#169=EDGE_LOOP('',(#215));
#170=EDGE_LOOP('',(#216));
#171=EDGE_LOOP('',(#217));
#172=EDGE_LOOP('',(#218));
#173=EDGE_LOOP('',(#219));
#174=EDGE_LOOP('',(#220));
#175=ORIENTED_EDGE('',*,*,#244,.T.);
#176=ORIENTED_EDGE('',*,*,#245,.T.);
#177=ORIENTED_EDGE('',*,*,#244,.F.);
#178=ORIENTED_EDGE('',*,*,#246,.T.);
#179=ORIENTED_EDGE('',*,*,#245,.F.);
#180=ORIENTED_EDGE('',*,*,#247,.T.);
#181=ORIENTED_EDGE('',*,*,#246,.F.);
#182=ORIENTED_EDGE('',*,*,#248,.T.);
#183=ORIENTED_EDGE('',*,*,#247,.F.);
#184=ORIENTED_EDGE('',*,*,#249,.T.);
#185=ORIENTED_EDGE('',*,*,#248,.F.);
#186=ORIENTED_EDGE('',*,*,#250,.T.);
#187=ORIENTED_EDGE('',*,*,#249,.F.);
#188=ORIENTED_EDGE('',*,*,#251,.T.);
#189=ORIENTED_EDGE('',*,*,#250,.F.);
#190=ORIENTED_EDGE('',*,*,#252,.T.);
#191=ORIENTED_EDGE('',*,*,#251,.F.);
#192=ORIENTED_EDGE('',*,*,#253,.T.);
#193=ORIENTED_EDGE('',*,*,#252,.F.);
#194=ORIENTED_EDGE('',*,*,#254,.T.);
#195=ORIENTED_EDGE('',*,*,#253,.F.);
#196=ORIENTED_EDGE('',*,*,#255,.T.);
#197=ORIENTED_EDGE('',*,*,#254,.F.);
#198=ORIENTED_EDGE('',*,*,#256,.T.);
#199=ORIENTED_EDGE('',*,*,#255,.F.);
#200=ORIENTED_EDGE('',*,*,#257,.T.);
#201=ORIENTED_EDGE('',*,*,#256,.F.);
#202=ORIENTED_EDGE('',*,*,#258,.T.);
#203=ORIENTED_EDGE('',*,*,#257,.F.);
#204=ORIENTED_EDGE('',*,*,#259,.T.);
#205=ORIENTED_EDGE('',*,*,#258,.F.);
#206=ORIENTED_EDGE('',*,*,#260,.T.);
#207=ORIENTED_EDGE('',*,*,#259,.F.);
#208=ORIENTED_EDGE('',*,*,#261,.T.);
#209=ORIENTED_EDGE('',*,*,#260,.F.);
#210=ORIENTED_EDGE('',*,*,#262,.T.);
#211=ORIENTED_EDGE('',*,*,#261,.F.);
#212=ORIENTED_EDGE('',*,*,#263,.T.);
#213=ORIENTED_EDGE('',*,*,#262,.F.);
#214=ORIENTED_EDGE('',*,*,#264,.T.);
#215=ORIENTED_EDGE('',*,*,#263,.F.);
#216=ORIENTED_EDGE('',*,*,#265,.T.);
#217=ORIENTED_EDGE('',*,*,#264,.F.);
#218=ORIENTED_EDGE('',*,*,#266,.T.);
#219=ORIENTED_EDGE('',*,*,#265,.F.);
#220=ORIENTED_EDGE('',*,*,#266,.F.);
#221=VERTEX_POINT('',#489);
#222=VERTEX_POINT('',#492);
#223=VERTEX_POINT('',#495);
#224=VERTEX_POINT('',#498);
#225=VERTEX_POINT('',#501);
#226=VERTEX_POINT('',#504);
#227=VERTEX_POINT('',#507);
#228=VERTEX_POINT('',#510);
#229=VERTEX_POINT('',#513);
#230=VERTEX_POINT('',#516);
#231=VERTEX_POINT('',#519);
#232=VERTEX_POINT('',#522);
#233=VERTEX_POINT('',#525);
#234=VERTEX_POINT('',#528);
#235=VERTEX_POINT('',#531);
#236=VERTEX_POINT('',#534);
#237=VERTEX_POINT('',#537);
#238=VERTEX_POINT('',#540);
#239=VERTEX_POINT('',#543);
#240=VERTEX_POINT('',#546);
#241=VERTEX_POINT('',#549);
#242=VERTEX_POINT('',#552);
#243=VERTEX_POINT('',#555);
#244=EDGE_CURVE('',#221,#221,#267,.T.);
#245=EDGE_CURVE('',#222,#222,#268,.T.);
#246=EDGE_CURVE('',#223,#223,#269,.T.);
#247=EDGE_CURVE('',#224,#224,#270,.T.);
#248=EDGE_CURVE('',#225,#225,#271,.T.);
#249=EDGE_CURVE('',#226,#226,#272,.T.);
#250=EDGE_CURVE('',#227,#227,#273,.T.);
#251=EDGE_CURVE('',#228,#228,#274,.T.);
#252=EDGE_CURVE('',#229,#229,#275,.T.);
#253=EDGE_CURVE('',#230,#230,#276,.T.);
#254=EDGE_CURVE('',#231,#231,#277,.T.);
#255=EDGE_CURVE('',#232,#232,#278,.T.);
#256=EDGE_CURVE('',#233,#233,#279,.T.);
#257=EDGE_CURVE('',#234,#234,#280,.T.);
#258=EDGE_CURVE('',#235,#235,#281,.T.);
#259=EDGE_CURVE('',#236,#236,#282,.T.);
#260=EDGE_CURVE('',#237,#237,#283,.T.);
#261=EDGE_CURVE('',#238,#238,#284,.T.);
#262=EDGE_CURVE('',#239,#239,#285,.T.);
#263=EDGE_CURVE('',#240,#240,#286,.T.);
#264=EDGE_CURVE('',#241,#241,#287,.T.);
#265=EDGE_CURVE('',#242,#242,#288,.T.);
#266=EDGE_CURVE('',#243,#243,#289,.T.);
#267=CIRCLE('',#329,8.3836346024001);
#268=CIRCLE('',#331,8.87840012107731);
#269=CIRCLE('',#333,15.875);
#270=CIRCLE('',#335,15.575);
#271=CIRCLE('',#337,15.575);
#272=CIRCLE('',#339,22.99025);
#273=CIRCLE('',#341,22.99025);
#274=CIRCLE('',#343,19.480757323931);
#275=CIRCLE('',#345,19.);
#276=CIRCLE('',#347,19.);
#277=CIRCLE('',#349,19.480757323931);
#278=CIRCLE('',#351,22.9902500000002);
#279=CIRCLE('',#353,22.99025);
#280=CIRCLE('',#355,13.25);
#281=CIRCLE('',#357,11.25);
#282=CIRCLE('',#359,11.25);
#283=CIRCLE('',#361,11.2875644347018);
#284=CIRCLE('',#363,12.5);
#285=CIRCLE('',#365,12.5);
#286=CIRCLE('',#367,16.05);
#287=CIRCLE('',#369,16.85);
#288=CIRCLE('',#371,16.85);
#289=CIRCLE('',#373,13.3858983848622);
#290=CURVE_STYLE('',#294,POSITIVE_LENGTH_MEASURE(0.13),#321);
#291=CURVE_STYLE('',#295,POSITIVE_LENGTH_MEASURE(0.18),#321);
#292=CURVE_STYLE('',#296,POSITIVE_LENGTH_MEASURE(0.18),#321);
#293=CURVE_STYLE('',#297,POSITIVE_LENGTH_MEASURE(0.18),#322);
#294=DRAUGHTING_PRE_DEFINED_CURVE_FONT('continuous');
#295=DRAUGHTING_PRE_DEFINED_CURVE_FONT('continuous');
#296=DRAUGHTING_PRE_DEFINED_CURVE_FONT('continuous');
#297=DRAUGHTING_PRE_DEFINED_CURVE_FONT('continuous');
#298=PRESENTATION_LAYER_ASSIGNMENT('1','Layer 1',(#481,#482,#483,#325,#326,
#327,#328,#33));
#299=STYLED_ITEM('',(#307),#481);
#300=STYLED_ITEM('',(#308),#482);
#301=STYLED_ITEM('',(#309),#483);
#302=STYLED_ITEM('',(#310),#325);
#303=STYLED_ITEM('',(#311),#326);
#304=STYLED_ITEM('',(#312),#327);
#305=STYLED_ITEM('',(#313),#328);
#306=STYLED_ITEM('',(#314),#33);
#307=PRESENTATION_STYLE_ASSIGNMENT((#315));
#308=PRESENTATION_STYLE_ASSIGNMENT((#316));
#309=PRESENTATION_STYLE_ASSIGNMENT((#317));
#310=PRESENTATION_STYLE_ASSIGNMENT((#290));
#311=PRESENTATION_STYLE_ASSIGNMENT((#291));
#312=PRESENTATION_STYLE_ASSIGNMENT((#292));
#313=PRESENTATION_STYLE_ASSIGNMENT((#293));
#314=PRESENTATION_STYLE_ASSIGNMENT((#28));
#315=POINT_STYLE('',#318,POSITIVE_LENGTH_MEASURE(3.),#321);
#316=POINT_STYLE('',#319,POSITIVE_LENGTH_MEASURE(3.),#321);
#317=POINT_STYLE('',#320,POSITIVE_LENGTH_MEASURE(3.),#322);
#318=PRE_DEFINED_POINT_MARKER_SYMBOL('plus');
#319=PRE_DEFINED_POINT_MARKER_SYMBOL('plus');
#320=PRE_DEFINED_POINT_MARKER_SYMBOL('plus');
#321=COLOUR_RGB('Strong Stone',0.576470588235294,0.54508278019379,0.392156862745098);
#322=COLOUR_RGB('Medium Maroon',0.6,0.4,0.4);
#323=COLOUR_RGB('TLS_NOCUT',0.499992370489052,0.499992370489052,0.499992370489052);
#324=AXIS2_PLACEMENT_3D('',#480,#376,#377);
#325=AXIS2_PLACEMENT_3D('',#484,#378,#379);
#326=AXIS2_PLACEMENT_3D('PCS',#485,#380,#381);
#327=AXIS2_PLACEMENT_3D('MCS',#486,#382,#383);
#328=AXIS2_PLACEMENT_3D('CSW',#487,#384,#385);
#329=AXIS2_PLACEMENT_3D('',#488,#386,#387);
#330=AXIS2_PLACEMENT_3D('',#490,#388,#389);
#331=AXIS2_PLACEMENT_3D('',#491,#390,#391);
#332=AXIS2_PLACEMENT_3D('',#493,#392,#393);
#333=AXIS2_PLACEMENT_3D('',#494,#394,#395);
#334=AXIS2_PLACEMENT_3D('',#496,#396,#397);
#335=AXIS2_PLACEMENT_3D('',#497,#398,#399);
#336=AXIS2_PLACEMENT_3D('',#499,#400,#401);
#337=AXIS2_PLACEMENT_3D('',#500,#402,#403);
#338=AXIS2_PLACEMENT_3D('',#502,#404,#405);
#339=AXIS2_PLACEMENT_3D('',#503,#406,#407);
#340=AXIS2_PLACEMENT_3D('',#505,#408,#409);
#341=AXIS2_PLACEMENT_3D('',#506,#410,#411);
#342=AXIS2_PLACEMENT_3D('',#508,#412,#413);
#343=AXIS2_PLACEMENT_3D('',#509,#414,#415);
#344=AXIS2_PLACEMENT_3D('',#511,#416,#417);
#345=AXIS2_PLACEMENT_3D('',#512,#418,#419);
#346=AXIS2_PLACEMENT_3D('',#514,#420,#421);
#347=AXIS2_PLACEMENT_3D('',#515,#422,#423);
#348=AXIS2_PLACEMENT_3D('',#517,#424,#425);
#349=AXIS2_PLACEMENT_3D('',#518,#426,#427);
#350=AXIS2_PLACEMENT_3D('',#520,#428,#429);
#351=AXIS2_PLACEMENT_3D('',#521,#430,#431);
#352=AXIS2_PLACEMENT_3D('',#523,#432,#433);
#353=AXIS2_PLACEMENT_3D('',#524,#434,#435);
#354=AXIS2_PLACEMENT_3D('',#526,#436,#437);
#355=AXIS2_PLACEMENT_3D('',#527,#438,#439);
#356=AXIS2_PLACEMENT_3D('',#529,#440,#441);
#357=AXIS2_PLACEMENT_3D('',#530,#442,#443);
#358=AXIS2_PLACEMENT_3D('',#532,#444,#445);
#359=AXIS2_PLACEMENT_3D('',#533,#446,#447);
#360=AXIS2_PLACEMENT_3D('',#535,#448,#449);
#361=AXIS2_PLACEMENT_3D('',#536,#450,#451);
#362=AXIS2_PLACEMENT_3D('',#538,#452,#453);
#363=AXIS2_PLACEMENT_3D('',#539,#454,#455);
#364=AXIS2_PLACEMENT_3D('',#541,#456,#457);
#365=AXIS2_PLACEMENT_3D('',#542,#458,#459);
#366=AXIS2_PLACEMENT_3D('',#544,#460,#461);
#367=AXIS2_PLACEMENT_3D('',#545,#462,#463);
#368=AXIS2_PLACEMENT_3D('',#547,#464,#465);
#369=AXIS2_PLACEMENT_3D('',#548,#466,#467);
#370=AXIS2_PLACEMENT_3D('',#550,#468,#469);
#371=AXIS2_PLACEMENT_3D('',#551,#470,#471);
#372=AXIS2_PLACEMENT_3D('',#553,#472,#473);
#373=AXIS2_PLACEMENT_3D('',#554,#474,#475);
#374=AXIS2_PLACEMENT_3D('',#556,#476,#477);
#375=AXIS2_PLACEMENT_3D('',#557,#478,#479);
#376=DIRECTION('',(0.,0.,1.));
#377=DIRECTION('',(1.,0.,0.));
#378=DIRECTION('',(0.,0.,1.));
#379=DIRECTION('',(1.,0.,0.));
#380=DIRECTION('',(0.,0.,1.));
#381=DIRECTION('',(1.,0.,0.));
#382=DIRECTION('',(0.,0.,1.));
#383=DIRECTION('',(1.,0.,0.));
#384=DIRECTION('',(0.,0.,1.));
#385=DIRECTION('',(1.,0.,0.));
#386=DIRECTION('',(0.,0.,1.));
#387=DIRECTION('',(1.,0.,0.));
#388=DIRECTION('',(0.,0.,1.));
#389=DIRECTION('',(-1.,0.,0.));
#390=DIRECTION('',(0.,0.,1.));
#391=DIRECTION('',(1.,0.,0.));
#392=DIRECTION('',(0.,0.,1.));
#393=DIRECTION('',(-1.,0.,0.));
#394=DIRECTION('',(0.,0.,1.));
#395=DIRECTION('',(1.,0.,0.));
#396=DIRECTION('',(0.,0.,-1.));
#397=DIRECTION('',(1.,0.,4.48464824240131E-017));
#398=DIRECTION('',(0.,0.,1.));
#399=DIRECTION('',(1.,0.,0.));
#400=DIRECTION('',(0.,0.,1.));
#401=DIRECTION('',(-1.,0.,0.));
#402=DIRECTION('',(0.,0.,1.));
#403=DIRECTION('',(1.,0.,0.));
#404=DIRECTION('',(0.,0.,1.));
#405=DIRECTION('',(-1.,0.,0.));
#406=DIRECTION('',(0.,0.,1.));
#407=DIRECTION('',(1.,0.,0.));
#408=DIRECTION('',(0.,0.,1.));
#409=DIRECTION('',(-1.,0.,0.));
#410=DIRECTION('',(0.,0.,1.));
#411=DIRECTION('',(1.,0.,0.));
#412=DIRECTION('',(0.,0.,1.));
#413=DIRECTION('',(-1.,0.,0.));
#414=DIRECTION('',(0.,0.,1.));
#415=DIRECTION('',(1.,0.,0.));
#416=DIRECTION('',(0.,0.,1.));
#417=DIRECTION('',(-1.,0.,-2.65548883727681E-017));
#418=DIRECTION('',(0.,0.,1.));
#419=DIRECTION('',(1.,0.,0.));
#420=DIRECTION('',(0.,0.,-1.));
#421=DIRECTION('',(1.,0.,0.));
#422=DIRECTION('',(0.,0.,1.));
#423=DIRECTION('',(1.,0.,0.));
#424=DIRECTION('',(0.,0.,1.));
#425=DIRECTION('',(-1.,0.,0.));
#426=DIRECTION('',(0.,0.,1.));
#427=DIRECTION('',(1.,0.,0.));
#428=DIRECTION('',(0.,0.,1.));
#429=DIRECTION('',(-1.,0.,0.));
#430=DIRECTION('',(0.,0.,1.));
#431=DIRECTION('',(1.,0.,0.));
#432=DIRECTION('',(0.,0.,-1.));
#433=DIRECTION('',(1.,0.,-3.3506157368676E-017));
#434=DIRECTION('',(0.,0.,1.));
#435=DIRECTION('',(1.,0.,0.));
#436=DIRECTION('',(0.,0.,1.));
#437=DIRECTION('',(-1.,0.,0.));
#438=DIRECTION('',(0.,0.,1.));
#439=DIRECTION('',(1.,0.,0.));
#440=DIRECTION('',(0.,0.,-1.));
#441=DIRECTION('',(1.,0.,0.));
#442=DIRECTION('',(0.,0.,1.));
#443=DIRECTION('',(1.,0.,0.));
#444=DIRECTION('',(0.,0.,1.));
#445=DIRECTION('',(-1.,0.,0.));
#446=DIRECTION('',(0.,0.,1.));
#447=DIRECTION('',(1.,0.,0.));
#448=DIRECTION('',(0.,0.,1.));
#449=DIRECTION('',(-1.,0.,0.));
#450=DIRECTION('',(0.,0.,1.));
#451=DIRECTION('',(1.,0.,0.));
#452=DIRECTION('',(0.,0.,1.));
#453=DIRECTION('',(-1.,0.,0.));
#454=DIRECTION('',(0.,0.,1.));
#455=DIRECTION('',(1.,0.,0.));
#456=DIRECTION('',(0.,0.,-1.));
#457=DIRECTION('',(1.,0.,1.29668581567411E-016));
#458=DIRECTION('',(0.,0.,1.));
#459=DIRECTION('',(1.,0.,0.));
#460=DIRECTION('',(0.,0.,1.));
#461=DIRECTION('',(-1.,0.,0.));
#462=DIRECTION('',(0.,0.,1.));
#463=DIRECTION('',(1.,0.,0.));
#464=DIRECTION('',(0.,0.,1.));
#465=DIRECTION('',(-1.,0.,0.));
#466=DIRECTION('',(0.,0.,1.));
#467=DIRECTION('',(1.,0.,0.));
#468=DIRECTION('',(0.,0.,1.));
#469=DIRECTION('',(-1.,0.,0.));
#470=DIRECTION('',(0.,0.,1.));
#471=DIRECTION('',(1.,0.,0.));
#472=DIRECTION('',(0.,0.,1.));
#473=DIRECTION('',(-1.,0.,0.));
#474=DIRECTION('',(0.,0.,1.));
#475=DIRECTION('',(1.,0.,0.));
#476=DIRECTION('',(0.,0.,1.));
#477=DIRECTION('',(-1.,0.,-2.38054458224635E-017));
#478=DIRECTION('',(0.,0.,-1.));
#479=DIRECTION('',(1.,0.,0.));
#480=CARTESIAN_POINT('',(0.,0.,0.));
#481=CARTESIAN_POINT('',(0.,0.,0.));
#482=CARTESIAN_POINT('',(0.,0.,0.));
#483=CARTESIAN_POINT('',(0.,0.,-40.5));
#484=CARTESIAN_POINT('',(0.,0.,0.));
#485=CARTESIAN_POINT('',(0.,0.,0.));
#486=CARTESIAN_POINT('',(0.,0.,0.));
#487=CARTESIAN_POINT('',(0.,0.,-40.5));
#488=CARTESIAN_POINT('',(0.,0.,48.4));
#489=CARTESIAN_POINT('',(8.3836346024001,0.,48.4));
#490=CARTESIAN_POINT('',(0.,6.25675,48.4));
#491=CARTESIAN_POINT('',(0.,0.,47.9721601103663));
#492=CARTESIAN_POINT('',(8.87840012107731,0.,47.9721601103663));
#493=CARTESIAN_POINT('',(0.,0.,47.9));
#494=CARTESIAN_POINT('',(0.,0.,0.));
#495=CARTESIAN_POINT('',(15.875,0.,0.));
#496=CARTESIAN_POINT('',(0.,0.,47.9721601103663));
#497=CARTESIAN_POINT('',(0.,0.,-0.428444402022631));
#498=CARTESIAN_POINT('',(15.575,0.,-0.428444402022631));
#499=CARTESIAN_POINT('',(0.,0.,0.));
#500=CARTESIAN_POINT('',(0.,0.,-1.));
#501=CARTESIAN_POINT('',(15.575,0.,-1.));
#502=CARTESIAN_POINT('',(0.,0.,0.));
#503=CARTESIAN_POINT('',(0.,0.,-1.));
#504=CARTESIAN_POINT('',(22.99025,0.,-1.));
#505=CARTESIAN_POINT('',(0.,15.575,-1.));
#506=CARTESIAN_POINT('',(0.,0.,-9.58398933275901));
#507=CARTESIAN_POINT('',(22.99025,0.,-9.58398933275901));
#508=CARTESIAN_POINT('',(0.,0.,0.));
#509=CARTESIAN_POINT('',(0.,0.,-11.6));
#510=CARTESIAN_POINT('',(19.480757323931,0.,-11.6));
#511=CARTESIAN_POINT('',(0.,0.,-9.58398933275901));
#512=CARTESIAN_POINT('',(0.,0.,-11.6));
#513=CARTESIAN_POINT('',(19.,0.,-11.6));
#514=CARTESIAN_POINT('',(0.,19.480757323931,-11.6));
#515=CARTESIAN_POINT('',(0.,0.,-15.6));
#516=CARTESIAN_POINT('',(19.,0.,-15.6));
#517=CARTESIAN_POINT('',(0.,0.,0.));
#518=CARTESIAN_POINT('',(0.,0.,-15.6));
#519=CARTESIAN_POINT('',(19.480757323931,0.,-15.6));
#520=CARTESIAN_POINT('',(0.,19.,-15.6));
#521=CARTESIAN_POINT('',(0.,0.,-17.616010667241));
#522=CARTESIAN_POINT('',(22.9902500000002,0.,-17.616010667241));
#523=CARTESIAN_POINT('',(0.,0.,-15.6));
#524=CARTESIAN_POINT('',(0.,0.,-22.));
#525=CARTESIAN_POINT('',(22.99025,0.,-22.));
#526=CARTESIAN_POINT('',(0.,0.,0.));
#527=CARTESIAN_POINT('',(0.,0.,-22.));
#528=CARTESIAN_POINT('',(13.25,0.,-22.));
#529=CARTESIAN_POINT('',(0.,22.99025,-22.));
#530=CARTESIAN_POINT('',(0.,0.,-24.));
#531=CARTESIAN_POINT('',(11.25,0.,-24.));
#532=CARTESIAN_POINT('',(0.,0.,-24.));
#533=CARTESIAN_POINT('',(0.,0.,-26.9));
#534=CARTESIAN_POINT('',(11.25,0.,-26.9));
#535=CARTESIAN_POINT('',(0.,0.,0.));
#536=CARTESIAN_POINT('',(0.,0.,-26.9));
#537=CARTESIAN_POINT('',(11.2875644347018,0.,-26.9));
#538=CARTESIAN_POINT('',(0.,11.25,-26.9));
#539=CARTESIAN_POINT('',(0.,0.,-29.));
#540=CARTESIAN_POINT('',(12.5,0.,-29.));
#541=CARTESIAN_POINT('',(0.,0.,-26.9));
#542=CARTESIAN_POINT('',(0.,0.,-33.));
#543=CARTESIAN_POINT('',(12.5,0.,-33.));
#544=CARTESIAN_POINT('',(0.,0.,0.));
#545=CARTESIAN_POINT('',(0.,0.,-33.));
#546=CARTESIAN_POINT('',(16.05,0.,-33.));
#547=CARTESIAN_POINT('',(0.,12.5,-33.));
#548=CARTESIAN_POINT('',(0.,0.,-33.8));
#549=CARTESIAN_POINT('',(16.85,0.,-33.8));
#550=CARTESIAN_POINT('',(0.,0.,-33.8));
#551=CARTESIAN_POINT('',(0.,0.,-50.));
#552=CARTESIAN_POINT('',(16.85,0.,-50.));
#553=CARTESIAN_POINT('',(0.,0.,0.));
#554=CARTESIAN_POINT('',(0.,0.,-52.));
#555=CARTESIAN_POINT('',(13.3858983848622,0.,-52.));
#556=CARTESIAN_POINT('',(0.,0.,-50.));
#557=CARTESIAN_POINT('',(0.,13.3858983848622,-52.));
#558=MECHANICAL_DESIGN_GEOMETRIC_PRESENTATION_REPRESENTATION('',(#299,#300,
#301,#302,#303,#304,#305,#306),#559);
#559=(
GEOMETRIC_REPRESENTATION_CONTEXT(3)
GLOBAL_UNCERTAINTY_ASSIGNED_CONTEXT((#560))
GLOBAL_UNIT_ASSIGNED_CONTEXT((#566,#562,#561))
REPRESENTATION_CONTEXT('1493025717063','TOP_LEVEL_ASSEMBLY_PART')
);
#560=UNCERTAINTY_MEASURE_WITH_UNIT(LENGTH_MEASURE(2.E-005),#566,
'DISTANCE_ACCURACY_VALUE','Maximum Tolerance applied to model');
#561=(
NAMED_UNIT(*)
SI_UNIT($,.STERADIAN.)
SOLID_ANGLE_UNIT()
);
#562=(
CONVERSION_BASED_UNIT('DEGREE',#564)
NAMED_UNIT(#563)
PLANE_ANGLE_UNIT()
);
#563=DIMENSIONAL_EXPONENTS(0.,0.,0.,0.,0.,0.,0.);
#564=PLANE_ANGLE_MEASURE_WITH_UNIT(PLANE_ANGLE_MEASURE(0.0174532925),#565);
#565=(
NAMED_UNIT(*)
PLANE_ANGLE_UNIT()
SI_UNIT($,.RADIAN.)
);
#566=(
LENGTH_UNIT()
NAMED_UNIT(*)
SI_UNIT(.MILLI.,.METRE.)
);
ENDSEC;
END-ISO-10303-21;
