ISO-10303-21;
HEADER;
/* Generated by software containing ST-Developer
 * from STEP Tools, Inc. (www.steptools.com) 
 */
/* OPTION: using custom schema-name function */

FILE_DESCRIPTION(
/* description */ (''),
/* implementation_level */ '2;1');

FILE_NAME(
/* name */ '1493025696378.stp',
/* time_stamp */ '2017-04-24T11:21:42+02:00',
/* author */ (''),
/* organization */ ('SMS'),
/* preprocessor_version */ 'ST-DEVELOPER v15',
/* originating_system */ 'SIEMENS PLM Software NX 8.5',
/* authorisation */ '');

FILE_SCHEMA (('AUTOMOTIVE_DESIGN { 1 0 10303 214 3 1 1 1 }'));
ENDSEC;

DATA;
#10=CONSTRUCTIVE_GEOMETRY_REPRESENTATION_RELATIONSHIP(
'supplemental geometry','',#26,#11);
#11=CONSTRUCTIVE_GEOMETRY_REPRESENTATION('supplemental geometry',(#336,
#337,#338,#339),#593);
#12=GEOMETRICALLY_BOUNDED_WIREFRAME_SHAPE_REPRESENTATION(
'392.55514-3011050-636200737610677283-1-None',(#27),#593);
#13=SHAPE_REPRESENTATION_RELATIONSHIP('None',
'relationship between 392.55514-3011050-636200737610677283-1-None and 
392.55514-3011050-636200737610677283-1-None',#26,#15);
#14=SHAPE_REPRESENTATION_RELATIONSHIP('None',
'relationship between 392.55514-3011050-636200737610677283-1-None and 
392.55514-3011050-636200737610677283-1-None',#26,#12);
#15=ADVANCED_BREP_SHAPE_REPRESENTATION(
'392.55514-3011050-636200737610677283-1-None',(#33),#593);
#16=SHAPE_DEFINITION_REPRESENTATION(#17,#26);
#17=PRODUCT_DEFINITION_SHAPE('','',#18);
#18=PRODUCT_DEFINITION(' ','',#20,#19);
#19=PRODUCT_DEFINITION_CONTEXT('part definition',#25,'design');
#20=PRODUCT_DEFINITION_FORMATION_WITH_SPECIFIED_SOURCE(' ',' ',#22,
 .NOT_KNOWN.);
#21=PRODUCT_RELATED_PRODUCT_CATEGORY('part','',(#22));
#22=PRODUCT('392.55514-3011050-636200737610677283-1',
'392.55514-3011050-636200737610677283-1',' ',(#23));
#23=PRODUCT_CONTEXT(' ',#25,'mechanical');
#24=APPLICATION_PROTOCOL_DEFINITION('international standard',
'automotive_design',2010,#25);
#25=APPLICATION_CONTEXT(
'core data for automotive mechanical design processes');
#26=SHAPE_REPRESENTATION('392.55514-3011050-636200737610677283-1-None',
(#335),#593);
#27=GEOMETRIC_CURVE_SET('None',(#495,#496,#497));
#28=SURFACE_STYLE_USAGE(.BOTH.,#29);
#29=SURFACE_SIDE_STYLE('',(#30));
#30=SURFACE_STYLE_FILL_AREA(#31);
#31=FILL_AREA_STYLE('',(#32));
#32=FILL_AREA_STYLE_COLOUR('',#334);
#33=MANIFOLD_SOLID_BREP('NOCUT',#34);
#34=CLOSED_SHELL('',(#99,#100,#101,#102,#103,#104,#105,#106,#107,#108,#109,
#110,#111,#112,#113,#114,#115,#116,#117,#118,#119,#120,#121,#122,#123));
#35=TOROIDAL_SURFACE('',#386,8.3836346024001,0.5);
#36=B_SPLINE_CURVE_WITH_KNOTS('',3,(#520,#521,#522,#523,#524,#525,#526,
#527,#528,#529,#530,#531,#532,#533,#534,#535,#536,#537),.UNSPECIFIED.,.T.,
 .F.,(2,2,2,2,2,2,2,2,2,2,2),(-0.125,0.,0.125,0.25,0.375,0.5,0.625,0.75,
0.875,1.,1.125),.UNSPECIFIED.);
#37=CYLINDRICAL_SURFACE('',#345,9.35);
#38=CYLINDRICAL_SURFACE('',#351,7.);
#39=CYLINDRICAL_SURFACE('',#354,6.25);
#40=CYLINDRICAL_SURFACE('',#360,9.00000000000001);
#41=CYLINDRICAL_SURFACE('',#364,22.99025);
#42=CYLINDRICAL_SURFACE('',#370,19.);
#43=CYLINDRICAL_SURFACE('',#376,22.99025);
#44=CYLINDRICAL_SURFACE('',#380,15.575);
#45=CONICAL_SURFACE('',#343,8.77264973081038,29.9999999999997);
#46=CONICAL_SURFACE('',#347,9.35,45.0000000000001);
#47=CONICAL_SURFACE('',#352,7.,13.);
#48=CONICAL_SURFACE('',#358,6.3,60.0000000000002);
#49=CONICAL_SURFACE('',#366,22.99025,60.1249999999989);
#50=CONICAL_SURFACE('',#374,19.480757323931,60.125);
#51=CONICAL_SURFACE('',#382,15.575,35.0000000000004);
#52=CONICAL_SURFACE('',#384,15.875,8.2979166666667);
#53=FACE_BOUND('',#135,.T.);
#54=FACE_BOUND('',#136,.T.);
#55=FACE_BOUND('',#137,.T.);
#56=FACE_BOUND('',#138,.T.);
#57=FACE_BOUND('',#139,.T.);
#58=FACE_BOUND('',#140,.T.);
#59=FACE_BOUND('',#141,.T.);
#60=FACE_BOUND('',#142,.T.);
#61=FACE_BOUND('',#143,.T.);
#62=FACE_BOUND('',#144,.T.);
#63=FACE_BOUND('',#145,.T.);
#64=FACE_BOUND('',#146,.T.);
#65=FACE_BOUND('',#147,.T.);
#66=FACE_BOUND('',#148,.T.);
#67=FACE_BOUND('',#149,.T.);
#68=FACE_BOUND('',#150,.T.);
#69=FACE_BOUND('',#151,.T.);
#70=FACE_BOUND('',#152,.T.);
#71=FACE_BOUND('',#153,.T.);
#72=FACE_BOUND('',#154,.T.);
#73=FACE_BOUND('',#155,.T.);
#74=FACE_BOUND('',#156,.T.);
#75=FACE_BOUND('',#157,.T.);
#76=FACE_BOUND('',#158,.T.);
#77=FACE_BOUND('',#159,.T.);
#78=FACE_BOUND('',#160,.T.);
#79=FACE_BOUND('',#161,.T.);
#80=FACE_BOUND('',#162,.T.);
#81=FACE_BOUND('',#163,.T.);
#82=FACE_BOUND('',#164,.T.);
#83=FACE_BOUND('',#165,.T.);
#84=FACE_BOUND('',#166,.T.);
#85=FACE_BOUND('',#167,.T.);
#86=FACE_BOUND('',#168,.T.);
#87=FACE_BOUND('',#169,.T.);
#88=FACE_BOUND('',#170,.T.);
#89=FACE_BOUND('',#171,.T.);
#90=FACE_BOUND('',#172,.T.);
#91=FACE_BOUND('',#173,.T.);
#92=FACE_BOUND('',#174,.T.);
#93=FACE_BOUND('',#175,.T.);
#94=FACE_BOUND('',#176,.T.);
#95=FACE_BOUND('',#177,.T.);
#96=FACE_BOUND('',#178,.T.);
#97=FACE_BOUND('',#179,.T.);
#98=FACE_BOUND('',#180,.T.);
#99=ADVANCED_FACE('',(#132),#124,.T.);
#100=ADVANCED_FACE('',(#53,#54),#45,.T.);
#101=ADVANCED_FACE('',(#55,#56),#37,.T.);
#102=ADVANCED_FACE('',(#57,#58),#46,.T.);
#103=ADVANCED_FACE('',(#59,#60),#125,.T.);
#104=ADVANCED_FACE('',(#61,#62),#38,.T.);
#105=ADVANCED_FACE('',(#63,#64),#47,.T.);
#106=ADVANCED_FACE('',(#65,#66),#39,.T.);
#107=ADVANCED_FACE('',(#67,#68),#126,.T.);
#108=ADVANCED_FACE('',(#69,#70),#48,.T.);
#109=ADVANCED_FACE('',(#71,#72),#40,.T.);
#110=ADVANCED_FACE('',(#73,#74),#127,.T.);
#111=ADVANCED_FACE('',(#75,#76),#41,.T.);
#112=ADVANCED_FACE('',(#77,#78),#49,.T.);
#113=ADVANCED_FACE('',(#79,#80),#128,.T.);
#114=ADVANCED_FACE('',(#81,#82),#42,.T.);
#115=ADVANCED_FACE('',(#83,#84),#129,.T.);
#116=ADVANCED_FACE('',(#85,#86),#50,.T.);
#117=ADVANCED_FACE('',(#87,#88),#43,.T.);
#118=ADVANCED_FACE('',(#89,#90),#130,.T.);
#119=ADVANCED_FACE('',(#91,#92),#44,.T.);
#120=ADVANCED_FACE('',(#93,#94),#51,.T.);
#121=ADVANCED_FACE('',(#95,#96),#52,.T.);
#122=ADVANCED_FACE('',(#97,#98),#35,.T.);
#123=ADVANCED_FACE('',(#133),#131,.T.);
#124=PLANE('',#341);
#125=PLANE('',#349);
#126=PLANE('',#356);
#127=PLANE('',#362);
#128=PLANE('',#368);
#129=PLANE('',#372);
#130=PLANE('',#378);
#131=PLANE('',#387);
#132=FACE_OUTER_BOUND('',#134,.T.);
#133=FACE_OUTER_BOUND('',#181,.T.);
#134=EDGE_LOOP('',(#182));
#135=EDGE_LOOP('',(#183));
#136=EDGE_LOOP('',(#184));
#137=EDGE_LOOP('',(#185));
#138=EDGE_LOOP('',(#186));
#139=EDGE_LOOP('',(#187));
#140=EDGE_LOOP('',(#188));
#141=EDGE_LOOP('',(#189));
#142=EDGE_LOOP('',(#190));
#143=EDGE_LOOP('',(#191));
#144=EDGE_LOOP('',(#192));
#145=EDGE_LOOP('',(#193));
#146=EDGE_LOOP('',(#194));
#147=EDGE_LOOP('',(#195));
#148=EDGE_LOOP('',(#196));
#149=EDGE_LOOP('',(#197));
#150=EDGE_LOOP('',(#198));
#151=EDGE_LOOP('',(#199));
#152=EDGE_LOOP('',(#200));
#153=EDGE_LOOP('',(#201));
#154=EDGE_LOOP('',(#202));
#155=EDGE_LOOP('',(#203));
#156=EDGE_LOOP('',(#204));
#157=EDGE_LOOP('',(#205));
#158=EDGE_LOOP('',(#206));
#159=EDGE_LOOP('',(#207));
#160=EDGE_LOOP('',(#208));
#161=EDGE_LOOP('',(#209));
#162=EDGE_LOOP('',(#210));
#163=EDGE_LOOP('',(#211));
#164=EDGE_LOOP('',(#212));
#165=EDGE_LOOP('',(#213));
#166=EDGE_LOOP('',(#214));
#167=EDGE_LOOP('',(#215));
#168=EDGE_LOOP('',(#216));
#169=EDGE_LOOP('',(#217));
#170=EDGE_LOOP('',(#218));
#171=EDGE_LOOP('',(#219));
#172=EDGE_LOOP('',(#220));
#173=EDGE_LOOP('',(#221));
#174=EDGE_LOOP('',(#222));
#175=EDGE_LOOP('',(#223));
#176=EDGE_LOOP('',(#224));
#177=EDGE_LOOP('',(#225));
#178=EDGE_LOOP('',(#226));
#179=EDGE_LOOP('',(#227));
#180=EDGE_LOOP('',(#228));
#181=EDGE_LOOP('',(#229));
#182=ORIENTED_EDGE('',*,*,#254,.T.);
#183=ORIENTED_EDGE('',*,*,#255,.T.);
#184=ORIENTED_EDGE('',*,*,#254,.F.);
#185=ORIENTED_EDGE('',*,*,#256,.T.);
#186=ORIENTED_EDGE('',*,*,#255,.F.);
#187=ORIENTED_EDGE('',*,*,#257,.T.);
#188=ORIENTED_EDGE('',*,*,#256,.F.);
#189=ORIENTED_EDGE('',*,*,#258,.T.);
#190=ORIENTED_EDGE('',*,*,#257,.F.);
#191=ORIENTED_EDGE('',*,*,#259,.T.);
#192=ORIENTED_EDGE('',*,*,#258,.F.);
#193=ORIENTED_EDGE('',*,*,#260,.T.);
#194=ORIENTED_EDGE('',*,*,#259,.F.);
#195=ORIENTED_EDGE('',*,*,#261,.T.);
#196=ORIENTED_EDGE('',*,*,#260,.F.);
#197=ORIENTED_EDGE('',*,*,#262,.T.);
#198=ORIENTED_EDGE('',*,*,#261,.F.);
#199=ORIENTED_EDGE('',*,*,#263,.T.);
#200=ORIENTED_EDGE('',*,*,#262,.F.);
#201=ORIENTED_EDGE('',*,*,#264,.T.);
#202=ORIENTED_EDGE('',*,*,#263,.F.);
#203=ORIENTED_EDGE('',*,*,#265,.T.);
#204=ORIENTED_EDGE('',*,*,#264,.F.);
#205=ORIENTED_EDGE('',*,*,#266,.T.);
#206=ORIENTED_EDGE('',*,*,#265,.F.);
#207=ORIENTED_EDGE('',*,*,#267,.T.);
#208=ORIENTED_EDGE('',*,*,#266,.F.);
#209=ORIENTED_EDGE('',*,*,#268,.T.);
#210=ORIENTED_EDGE('',*,*,#267,.F.);
#211=ORIENTED_EDGE('',*,*,#269,.T.);
#212=ORIENTED_EDGE('',*,*,#268,.F.);
#213=ORIENTED_EDGE('',*,*,#270,.T.);
#214=ORIENTED_EDGE('',*,*,#269,.F.);
#215=ORIENTED_EDGE('',*,*,#271,.T.);
#216=ORIENTED_EDGE('',*,*,#270,.F.);
#217=ORIENTED_EDGE('',*,*,#272,.T.);
#218=ORIENTED_EDGE('',*,*,#271,.F.);
#219=ORIENTED_EDGE('',*,*,#273,.T.);
#220=ORIENTED_EDGE('',*,*,#272,.F.);
#221=ORIENTED_EDGE('',*,*,#274,.T.);
#222=ORIENTED_EDGE('',*,*,#273,.F.);
#223=ORIENTED_EDGE('',*,*,#275,.T.);
#224=ORIENTED_EDGE('',*,*,#274,.F.);
#225=ORIENTED_EDGE('',*,*,#276,.T.);
#226=ORIENTED_EDGE('',*,*,#275,.F.);
#227=ORIENTED_EDGE('',*,*,#277,.T.);
#228=ORIENTED_EDGE('',*,*,#276,.F.);
#229=ORIENTED_EDGE('',*,*,#277,.F.);
#230=VERTEX_POINT('',#503);
#231=VERTEX_POINT('',#506);
#232=VERTEX_POINT('',#509);
#233=VERTEX_POINT('',#512);
#234=VERTEX_POINT('',#515);
#235=VERTEX_POINT('',#518);
#236=VERTEX_POINT('',#538);
#237=VERTEX_POINT('',#541);
#238=VERTEX_POINT('',#544);
#239=VERTEX_POINT('',#547);
#240=VERTEX_POINT('',#550);
#241=VERTEX_POINT('',#553);
#242=VERTEX_POINT('',#556);
#243=VERTEX_POINT('',#559);
#244=VERTEX_POINT('',#562);
#245=VERTEX_POINT('',#565);
#246=VERTEX_POINT('',#568);
#247=VERTEX_POINT('',#571);
#248=VERTEX_POINT('',#574);
#249=VERTEX_POINT('',#577);
#250=VERTEX_POINT('',#580);
#251=VERTEX_POINT('',#583);
#252=VERTEX_POINT('',#586);
#253=VERTEX_POINT('',#589);
#254=EDGE_CURVE('',#230,#230,#278,.T.);
#255=EDGE_CURVE('',#231,#231,#279,.T.);
#256=EDGE_CURVE('',#232,#232,#280,.T.);
#257=EDGE_CURVE('',#233,#233,#281,.T.);
#258=EDGE_CURVE('',#234,#234,#282,.T.);
#259=EDGE_CURVE('',#235,#235,#283,.T.);
#260=EDGE_CURVE('',#236,#236,#36,.T.);
#261=EDGE_CURVE('',#237,#237,#284,.T.);
#262=EDGE_CURVE('',#238,#238,#285,.T.);
#263=EDGE_CURVE('',#239,#239,#286,.T.);
#264=EDGE_CURVE('',#240,#240,#287,.T.);
#265=EDGE_CURVE('',#241,#241,#288,.T.);
#266=EDGE_CURVE('',#242,#242,#289,.T.);
#267=EDGE_CURVE('',#243,#243,#290,.T.);
#268=EDGE_CURVE('',#244,#244,#291,.T.);
#269=EDGE_CURVE('',#245,#245,#292,.T.);
#270=EDGE_CURVE('',#246,#246,#293,.T.);
#271=EDGE_CURVE('',#247,#247,#294,.T.);
#272=EDGE_CURVE('',#248,#248,#295,.T.);
#273=EDGE_CURVE('',#249,#249,#296,.T.);
#274=EDGE_CURVE('',#250,#250,#297,.T.);
#275=EDGE_CURVE('',#251,#251,#298,.T.);
#276=EDGE_CURVE('',#252,#252,#299,.T.);
#277=EDGE_CURVE('',#253,#253,#300,.T.);
#278=CIRCLE('',#340,8.77264973081038);
#279=CIRCLE('',#342,9.35);
#280=CIRCLE('',#344,9.35);
#281=CIRCLE('',#346,8.85);
#282=CIRCLE('',#348,7.);
#283=CIRCLE('',#350,7.);
#284=CIRCLE('',#353,6.25);
#285=CIRCLE('',#355,6.3);
#286=CIRCLE('',#357,9.00000000000002);
#287=CIRCLE('',#359,9.);
#288=CIRCLE('',#361,22.99025);
#289=CIRCLE('',#363,22.99025);
#290=CIRCLE('',#365,19.480757323931);
#291=CIRCLE('',#367,19.);
#292=CIRCLE('',#369,19.);
#293=CIRCLE('',#371,19.480757323931);
#294=CIRCLE('',#373,22.99025);
#295=CIRCLE('',#375,22.99025);
#296=CIRCLE('',#377,15.575);
#297=CIRCLE('',#379,15.575);
#298=CIRCLE('',#381,15.875);
#299=CIRCLE('',#383,8.87840012107731);
#300=CIRCLE('',#385,8.3836346024001);
#301=CURVE_STYLE('',#305,POSITIVE_LENGTH_MEASURE(0.13),#332);
#302=CURVE_STYLE('',#306,POSITIVE_LENGTH_MEASURE(0.18),#332);
#303=CURVE_STYLE('',#307,POSITIVE_LENGTH_MEASURE(0.18),#332);
#304=CURVE_STYLE('',#308,POSITIVE_LENGTH_MEASURE(0.18),#333);
#305=DRAUGHTING_PRE_DEFINED_CURVE_FONT('continuous');
#306=DRAUGHTING_PRE_DEFINED_CURVE_FONT('continuous');
#307=DRAUGHTING_PRE_DEFINED_CURVE_FONT('continuous');
#308=DRAUGHTING_PRE_DEFINED_CURVE_FONT('continuous');
#309=PRESENTATION_LAYER_ASSIGNMENT('1','Layer 1',(#495,#496,#497,#336,#337,
#338,#339,#33));
#310=STYLED_ITEM('',(#318),#495);
#311=STYLED_ITEM('',(#319),#496);
#312=STYLED_ITEM('',(#320),#497);
#313=STYLED_ITEM('',(#321),#336);
#314=STYLED_ITEM('',(#322),#337);
#315=STYLED_ITEM('',(#323),#338);
#316=STYLED_ITEM('',(#324),#339);
#317=STYLED_ITEM('',(#325),#33);
#318=PRESENTATION_STYLE_ASSIGNMENT((#326));
#319=PRESENTATION_STYLE_ASSIGNMENT((#327));
#320=PRESENTATION_STYLE_ASSIGNMENT((#328));
#321=PRESENTATION_STYLE_ASSIGNMENT((#301));
#322=PRESENTATION_STYLE_ASSIGNMENT((#302));
#323=PRESENTATION_STYLE_ASSIGNMENT((#303));
#324=PRESENTATION_STYLE_ASSIGNMENT((#304));
#325=PRESENTATION_STYLE_ASSIGNMENT((#28));
#326=POINT_STYLE('',#329,POSITIVE_LENGTH_MEASURE(3.),#332);
#327=POINT_STYLE('',#330,POSITIVE_LENGTH_MEASURE(3.),#332);
#328=POINT_STYLE('',#331,POSITIVE_LENGTH_MEASURE(3.),#333);
#329=PRE_DEFINED_POINT_MARKER_SYMBOL('plus');
#330=PRE_DEFINED_POINT_MARKER_SYMBOL('plus');
#331=PRE_DEFINED_POINT_MARKER_SYMBOL('plus');
#332=COLOUR_RGB('Strong Stone',0.576470588235294,0.54508278019379,0.392156862745098);
#333=COLOUR_RGB('Medium Maroon',0.6,0.4,0.4);
#334=COLOUR_RGB('TLS_NOCUT',0.499992370489052,0.499992370489052,0.499992370489052);
#335=AXIS2_PLACEMENT_3D('',#494,#388,#389);
#336=AXIS2_PLACEMENT_3D('',#498,#390,#391);
#337=AXIS2_PLACEMENT_3D('PCS',#499,#392,#393);
#338=AXIS2_PLACEMENT_3D('MCS',#500,#394,#395);
#339=AXIS2_PLACEMENT_3D('CSW',#501,#396,#397);
#340=AXIS2_PLACEMENT_3D('',#502,#398,#399);
#341=AXIS2_PLACEMENT_3D('',#504,#400,#401);
#342=AXIS2_PLACEMENT_3D('',#505,#402,#403);
#343=AXIS2_PLACEMENT_3D('',#507,#404,#405);
#344=AXIS2_PLACEMENT_3D('',#508,#406,#407);
#345=AXIS2_PLACEMENT_3D('',#510,#408,#409);
#346=AXIS2_PLACEMENT_3D('',#511,#410,#411);
#347=AXIS2_PLACEMENT_3D('',#513,#412,#413);
#348=AXIS2_PLACEMENT_3D('',#514,#414,#415);
#349=AXIS2_PLACEMENT_3D('',#516,#416,#417);
#350=AXIS2_PLACEMENT_3D('',#517,#418,#419);
#351=AXIS2_PLACEMENT_3D('',#519,#420,#421);
#352=AXIS2_PLACEMENT_3D('',#539,#422,#423);
#353=AXIS2_PLACEMENT_3D('',#540,#424,#425);
#354=AXIS2_PLACEMENT_3D('',#542,#426,#427);
#355=AXIS2_PLACEMENT_3D('',#543,#428,#429);
#356=AXIS2_PLACEMENT_3D('',#545,#430,#431);
#357=AXIS2_PLACEMENT_3D('',#546,#432,#433);
#358=AXIS2_PLACEMENT_3D('',#548,#434,#435);
#359=AXIS2_PLACEMENT_3D('',#549,#436,#437);
#360=AXIS2_PLACEMENT_3D('',#551,#438,#439);
#361=AXIS2_PLACEMENT_3D('',#552,#440,#441);
#362=AXIS2_PLACEMENT_3D('',#554,#442,#443);
#363=AXIS2_PLACEMENT_3D('',#555,#444,#445);
#364=AXIS2_PLACEMENT_3D('',#557,#446,#447);
#365=AXIS2_PLACEMENT_3D('',#558,#448,#449);
#366=AXIS2_PLACEMENT_3D('',#560,#450,#451);
#367=AXIS2_PLACEMENT_3D('',#561,#452,#453);
#368=AXIS2_PLACEMENT_3D('',#563,#454,#455);
#369=AXIS2_PLACEMENT_3D('',#564,#456,#457);
#370=AXIS2_PLACEMENT_3D('',#566,#458,#459);
#371=AXIS2_PLACEMENT_3D('',#567,#460,#461);
#372=AXIS2_PLACEMENT_3D('',#569,#462,#463);
#373=AXIS2_PLACEMENT_3D('',#570,#464,#465);
#374=AXIS2_PLACEMENT_3D('',#572,#466,#467);
#375=AXIS2_PLACEMENT_3D('',#573,#468,#469);
#376=AXIS2_PLACEMENT_3D('',#575,#470,#471);
#377=AXIS2_PLACEMENT_3D('',#576,#472,#473);
#378=AXIS2_PLACEMENT_3D('',#578,#474,#475);
#379=AXIS2_PLACEMENT_3D('',#579,#476,#477);
#380=AXIS2_PLACEMENT_3D('',#581,#478,#479);
#381=AXIS2_PLACEMENT_3D('',#582,#480,#481);
#382=AXIS2_PLACEMENT_3D('',#584,#482,#483);
#383=AXIS2_PLACEMENT_3D('',#585,#484,#485);
#384=AXIS2_PLACEMENT_3D('',#587,#486,#487);
#385=AXIS2_PLACEMENT_3D('',#588,#488,#489);
#386=AXIS2_PLACEMENT_3D('',#590,#490,#491);
#387=AXIS2_PLACEMENT_3D('',#591,#492,#493);
#388=DIRECTION('',(0.,0.,1.));
#389=DIRECTION('',(1.,0.,0.));
#390=DIRECTION('',(0.,0.,1.));
#391=DIRECTION('',(1.,0.,0.));
#392=DIRECTION('',(0.,0.,1.));
#393=DIRECTION('',(1.,0.,0.));
#394=DIRECTION('',(0.,0.,1.));
#395=DIRECTION('',(1.,0.,0.));
#396=DIRECTION('',(0.,0.,1.));
#397=DIRECTION('',(1.,0.,0.));
#398=DIRECTION('',(0.,0.,-1.));
#399=DIRECTION('',(-1.,0.,0.));
#400=DIRECTION('',(0.,0.,-1.));
#401=DIRECTION('',(1.,0.,0.));
#402=DIRECTION('',(0.,0.,-1.));
#403=DIRECTION('',(-1.,0.,0.));
#404=DIRECTION('',(0.,0.,1.));
#405=DIRECTION('',(-1.,0.,-7.10317956856682E-017));
#406=DIRECTION('',(0.,0.,-1.));
#407=DIRECTION('',(-1.,0.,0.));
#408=DIRECTION('',(0.,0.,-1.));
#409=DIRECTION('',(1.,0.,0.));
#410=DIRECTION('',(0.,0.,-1.));
#411=DIRECTION('',(-1.,0.,0.));
#412=DIRECTION('',(0.,0.,-1.));
#413=DIRECTION('',(1.,0.,1.03119243630661E-016));
#414=DIRECTION('',(0.,0.,-1.));
#415=DIRECTION('',(-1.,0.,0.));
#416=DIRECTION('',(0.,0.,1.));
#417=DIRECTION('',(-1.,0.,0.));
#418=DIRECTION('',(0.,0.,-1.));
#419=DIRECTION('',(-1.,0.,0.));
#420=DIRECTION('',(0.,0.,-1.));
#421=DIRECTION('',(1.,0.,0.));
#422=DIRECTION('',(0.,0.,-1.));
#423=DIRECTION('',(1.,0.,1.4585585973209E-016));
#424=DIRECTION('',(0.,0.,-1.));
#425=DIRECTION('',(-1.,0.,0.));
#426=DIRECTION('',(0.,0.,-1.));
#427=DIRECTION('',(1.,0.,0.));
#428=DIRECTION('',(0.,0.,-1.));
#429=DIRECTION('',(-1.,0.,0.));
#430=DIRECTION('',(0.,0.,-1.));
#431=DIRECTION('',(1.,0.,0.));
#432=DIRECTION('',(0.,0.,-1.));
#433=DIRECTION('',(-1.,0.,0.));
#434=DIRECTION('',(0.,0.,1.));
#435=DIRECTION('',(-1.,0.,9.9791334891882E-018));
#436=DIRECTION('',(0.,0.,-1.));
#437=DIRECTION('',(-1.,0.,0.));
#438=DIRECTION('',(0.,0.,-1.));
#439=DIRECTION('',(1.,0.,0.));
#440=DIRECTION('',(0.,0.,-1.));
#441=DIRECTION('',(-1.,0.,0.));
#442=DIRECTION('',(0.,0.,-1.));
#443=DIRECTION('',(1.,0.,0.));
#444=DIRECTION('',(0.,0.,-1.));
#445=DIRECTION('',(-1.,0.,0.));
#446=DIRECTION('',(0.,0.,-1.));
#447=DIRECTION('',(1.,0.,0.));
#448=DIRECTION('',(0.,0.,-1.));
#449=DIRECTION('',(-1.,0.,0.));
#450=DIRECTION('',(0.,0.,-1.));
#451=DIRECTION('',(1.,0.,3.14724602936526E-017));
#452=DIRECTION('',(0.,0.,-1.));
#453=DIRECTION('',(-1.,0.,0.));
#454=DIRECTION('',(0.,0.,1.));
#455=DIRECTION('',(-1.,0.,0.));
#456=DIRECTION('',(0.,0.,-1.));
#457=DIRECTION('',(-1.,0.,0.));
#458=DIRECTION('',(0.,0.,-1.));
#459=DIRECTION('',(1.,0.,0.));
#460=DIRECTION('',(0.,0.,-1.));
#461=DIRECTION('',(-1.,0.,0.));
#462=DIRECTION('',(0.,0.,-1.));
#463=DIRECTION('',(1.,0.,0.));
#464=DIRECTION('',(0.,0.,-1.));
#465=DIRECTION('',(-1.,0.,0.));
#466=DIRECTION('',(0.,0.,1.));
#467=DIRECTION('',(-1.,0.,-3.15352069352257E-017));
#468=DIRECTION('',(0.,0.,-1.));
#469=DIRECTION('',(-1.,0.,0.));
#470=DIRECTION('',(0.,0.,-1.));
#471=DIRECTION('',(1.,0.,0.));
#472=DIRECTION('',(0.,0.,-1.));
#473=DIRECTION('',(-1.,0.,0.));
#474=DIRECTION('',(0.,0.,1.));
#475=DIRECTION('',(-1.,0.,0.));
#476=DIRECTION('',(0.,0.,-1.));
#477=DIRECTION('',(-1.,0.,0.));
#478=DIRECTION('',(0.,0.,-1.));
#479=DIRECTION('',(1.,0.,0.));
#480=DIRECTION('',(0.,0.,-1.));
#481=DIRECTION('',(-1.,0.,0.));
#482=DIRECTION('',(0.,0.,1.));
#483=DIRECTION('',(-1.,0.,2.97640296487619E-017));
#484=DIRECTION('',(0.,0.,-1.));
#485=DIRECTION('',(-1.,0.,0.));
#486=DIRECTION('',(0.,0.,-1.));
#487=DIRECTION('',(1.,0.,0.));
#488=DIRECTION('',(0.,0.,-1.));
#489=DIRECTION('',(-1.,0.,0.));
#490=DIRECTION('',(0.,0.,-1.));
#491=DIRECTION('',(1.,0.,0.));
#492=DIRECTION('',(0.,0.,1.));
#493=DIRECTION('',(-1.,0.,0.));
#494=CARTESIAN_POINT('',(0.,0.,0.));
#495=CARTESIAN_POINT('',(0.,0.,0.));
#496=CARTESIAN_POINT('',(0.,0.,0.));
#497=CARTESIAN_POINT('',(0.,0.,-43.4));
#498=CARTESIAN_POINT('',(0.,0.,0.));
#499=CARTESIAN_POINT('',(0.,0.,0.));
#500=CARTESIAN_POINT('',(0.,0.,0.));
#501=CARTESIAN_POINT('',(0.,0.,-43.4));
#502=CARTESIAN_POINT('',(0.,0.,-50.));
#503=CARTESIAN_POINT('',(-8.77264973081038,0.,-50.));
#504=CARTESIAN_POINT('',(0.,3.5,-50.));
#505=CARTESIAN_POINT('',(0.,0.,-49.));
#506=CARTESIAN_POINT('',(-9.35,0.,-49.));
#507=CARTESIAN_POINT('',(0.,0.,-50.));
#508=CARTESIAN_POINT('',(0.,0.,-39.2));
#509=CARTESIAN_POINT('',(-9.35,0.,-39.2));
#510=CARTESIAN_POINT('',(0.,0.,48.4));
#511=CARTESIAN_POINT('',(0.,0.,-38.7));
#512=CARTESIAN_POINT('',(-8.85,0.,-38.7));
#513=CARTESIAN_POINT('',(0.,0.,-39.2));
#514=CARTESIAN_POINT('',(0.,0.,-38.7));
#515=CARTESIAN_POINT('',(-7.,0.,-38.7));
#516=CARTESIAN_POINT('',(0.,8.85,-38.7));
#517=CARTESIAN_POINT('',(0.,0.,-36.6));
#518=CARTESIAN_POINT('',(-7.,0.,-36.6));
#519=CARTESIAN_POINT('',(0.,0.,48.4));
#520=CARTESIAN_POINT('',(-1.63918403107735,6.2612217883982,-33.4));
#521=CARTESIAN_POINT('',(1.63918403107734,6.2612217883982,-33.4));
#522=CARTESIAN_POINT('',(3.26827424110184,5.58643052907682,-33.4));
#523=CARTESIAN_POINT('',(5.58643052907682,3.26827424110184,-33.4));
#524=CARTESIAN_POINT('',(6.2612217883982,1.63918403107735,-33.4));
#525=CARTESIAN_POINT('',(6.2612217883982,-1.63918403107734,-33.4));
#526=CARTESIAN_POINT('',(5.58643052907682,-3.26827424110184,-33.4));
#527=CARTESIAN_POINT('',(3.26827424110184,-5.58643052907682,-33.4));
#528=CARTESIAN_POINT('',(1.63918403107734,-6.2612217883982,-33.4));
#529=CARTESIAN_POINT('',(-1.63918403107734,-6.2612217883982,-33.4));
#530=CARTESIAN_POINT('',(-3.26827424110183,-5.58643052907682,-33.4));
#531=CARTESIAN_POINT('',(-5.58643052907682,-3.26827424110184,-33.4));
#532=CARTESIAN_POINT('',(-6.2612217883982,-1.63918403107734,-33.4));
#533=CARTESIAN_POINT('',(-6.2612217883982,1.63918403107734,-33.4));
#534=CARTESIAN_POINT('',(-5.58643052907682,3.26827424110183,-33.4));
#535=CARTESIAN_POINT('',(-3.26827424110185,5.58643052907681,-33.4));
#536=CARTESIAN_POINT('',(-1.63918403107735,6.2612217883982,-33.4));
#537=CARTESIAN_POINT('',(1.63918403107734,6.2612217883982,-33.4));
#538=CARTESIAN_POINT('',(-3.83045692914612E-016,6.2556108941991,-33.4));
#539=CARTESIAN_POINT('',(0.,0.,-36.6));
#540=CARTESIAN_POINT('',(0.,0.,-29.4));
#541=CARTESIAN_POINT('',(-6.25,0.,-29.4));
#542=CARTESIAN_POINT('',(0.,0.,48.4));
#543=CARTESIAN_POINT('',(0.,0.,-29.4));
#544=CARTESIAN_POINT('',(-6.3,0.,-29.4));
#545=CARTESIAN_POINT('',(0.,6.25,-29.4));
#546=CARTESIAN_POINT('',(0.,0.,-27.841154273188));
#547=CARTESIAN_POINT('',(-9.00000000000002,0.,-27.841154273188));
#548=CARTESIAN_POINT('',(0.,0.,-29.4));
#549=CARTESIAN_POINT('',(0.,0.,-22.));
#550=CARTESIAN_POINT('',(-9.,0.,-22.));
#551=CARTESIAN_POINT('',(0.,0.,48.4));
#552=CARTESIAN_POINT('',(0.,0.,-22.));
#553=CARTESIAN_POINT('',(-22.99025,0.,-22.));
#554=CARTESIAN_POINT('',(0.,9.,-22.));
#555=CARTESIAN_POINT('',(0.,0.,-17.616010667241));
#556=CARTESIAN_POINT('',(-22.99025,0.,-17.616010667241));
#557=CARTESIAN_POINT('',(0.,0.,48.4));
#558=CARTESIAN_POINT('',(0.,0.,-15.5999999999999));
#559=CARTESIAN_POINT('',(-19.480757323931,0.,-15.5999999999999));
#560=CARTESIAN_POINT('',(0.,0.,-17.616010667241));
#561=CARTESIAN_POINT('',(0.,0.,-15.6));
#562=CARTESIAN_POINT('',(-19.,0.,-15.6));
#563=CARTESIAN_POINT('',(0.,19.480757323931,-15.6));
#564=CARTESIAN_POINT('',(0.,0.,-11.6));
#565=CARTESIAN_POINT('',(-19.,0.,-11.6));
#566=CARTESIAN_POINT('',(0.,0.,48.4));
#567=CARTESIAN_POINT('',(0.,0.,-11.6));
#568=CARTESIAN_POINT('',(-19.480757323931,0.,-11.6));
#569=CARTESIAN_POINT('',(0.,19.,-11.6));
#570=CARTESIAN_POINT('',(0.,0.,-9.58398933275902));
#571=CARTESIAN_POINT('',(-22.99025,0.,-9.58398933275902));
#572=CARTESIAN_POINT('',(0.,0.,-11.6));
#573=CARTESIAN_POINT('',(0.,0.,-1.));
#574=CARTESIAN_POINT('',(-22.99025,0.,-1.));
#575=CARTESIAN_POINT('',(0.,0.,48.4));
#576=CARTESIAN_POINT('',(0.,0.,-1.));
#577=CARTESIAN_POINT('',(-15.575,0.,-1.));
#578=CARTESIAN_POINT('',(0.,22.99025,-1.));
#579=CARTESIAN_POINT('',(0.,0.,-0.428444402022631));
#580=CARTESIAN_POINT('',(-15.575,0.,-0.428444402022631));
#581=CARTESIAN_POINT('',(0.,0.,48.4));
#582=CARTESIAN_POINT('',(0.,0.,0.));
#583=CARTESIAN_POINT('',(-15.875,0.,0.));
#584=CARTESIAN_POINT('',(0.,0.,-0.428444402022631));
#585=CARTESIAN_POINT('',(0.,0.,47.9721601103663));
#586=CARTESIAN_POINT('',(-8.87840012107731,0.,47.9721601103663));
#587=CARTESIAN_POINT('',(0.,0.,0.));
#588=CARTESIAN_POINT('',(0.,0.,48.4));
#589=CARTESIAN_POINT('',(-8.3836346024001,0.,48.4));
#590=CARTESIAN_POINT('',(0.,0.,47.9));
#591=CARTESIAN_POINT('',(0.,6.25675,48.4));
#592=MECHANICAL_DESIGN_GEOMETRIC_PRESENTATION_REPRESENTATION('',(#310,#311,
#312,#313,#314,#315,#316,#317),#593);
#593=(
GEOMETRIC_REPRESENTATION_CONTEXT(3)
GLOBAL_UNCERTAINTY_ASSIGNED_CONTEXT((#594))
GLOBAL_UNIT_ASSIGNED_CONTEXT((#600,#596,#595))
REPRESENTATION_CONTEXT('1493025696378','TOP_LEVEL_ASSEMBLY_PART')
);
#594=UNCERTAINTY_MEASURE_WITH_UNIT(LENGTH_MEASURE(0.0508),#600,
'DISTANCE_ACCURACY_VALUE','Maximum Tolerance applied to model');
#595=(
NAMED_UNIT(*)
SI_UNIT($,.STERADIAN.)
SOLID_ANGLE_UNIT()
);
#596=(
CONVERSION_BASED_UNIT('DEGREE',#598)
NAMED_UNIT(#597)
PLANE_ANGLE_UNIT()
);
#597=DIMENSIONAL_EXPONENTS(0.,0.,0.,0.,0.,0.,0.);
#598=PLANE_ANGLE_MEASURE_WITH_UNIT(PLANE_ANGLE_MEASURE(0.0174532925),#599);
#599=(
NAMED_UNIT(*)
PLANE_ANGLE_UNIT()
SI_UNIT($,.RADIAN.)
);
#600=(
LENGTH_UNIT()
NAMED_UNIT(*)
SI_UNIT(.MILLI.,.METRE.)
);
ENDSEC;
END-ISO-10303-21;
