ISO-10303-21;
HEADER;
FILE_DESCRIPTION(
/* description */ ('3-D model version:1'),
/* implementation_level */ '2;1');
FILE_NAME(
/* name */ '392.55505C4032050',
/* time_stamp */ '2016-12-02T13:59:09',
/* author */ ('InteractiveCad'),
/* organization */ ('AB Sandvik Coromant'),
/* preprocessor_version */ 'ST-DEVELOPER v11',
/* originating_system */ 'SIEMENS UGS NX 6.0',
/* authorization */ '');
FILE_SCHEMA(('AUTOMOTIVE_DESIGN'));
ENDSEC;
DATA;
#10=SHAPE_REPRESENTATION_RELATIONSHIP('None','relationship between 392.55505C4032050uu_stp-None and 392.55505C403205\X\0D0uu_stp-None',
     #22,#11);
#11=ADVANCED_BREP_SHAPE_REPRESENTATION('392.55505C4032050uu_stp-None',(#32),#605);
#12=SHAPE_DEFINITION_REPRESENTATION(#13,#22);
#13=PRODUCT_DEFINITION_SHAPE('','',#14);
#14=PRODUCT_DEFINITION(' ','',#16,#15);
#15=PRODUCT_DEFINITION_CONTEXT('part definition',#21,'design');
#16=PRODUCT_DEFINITION_FORMATION_WITH_SPECIFIED_SOURCE(' ',' ',#18,.NOT_KNOWN.);
#17=PRODUCT_RELATED_PRODUCT_CATEGORY('part','',(#18));
#18=PRODUCT('392.55505C4032050uu_stp','392.55505C4032050uu_stp',' ',(#19));
#19=PRODUCT_CONTEXT(' ',#21,'mechanical');
#20=APPLICATION_PROTOCOL_DEFINITION('international standard','automotive_design',
     2001,#21);
#21=APPLICATION_CONTEXT('core data for automotive mechanical design processes');
#22=SHAPE_REPRESENTATION('392.55505C4032050uu_stp-None',(#344),#605);
#23=PRESENTATION_LAYER_ASSIGNMENT('1','Layer 1',(#32));
#24=STYLED_ITEM('',(#25),#32);
#25=PRESENTATION_STYLE_ASSIGNMENT((#26));
#26=SURFACE_STYLE_USAGE(.BOTH.,#27);
#27=SURFACE_SIDE_STYLE('',(#28));
#28=SURFACE_STYLE_FILL_AREA(#29);
#29=FILL_AREA_STYLE('',(#30));
#30=FILL_AREA_STYLE_COLOUR('',#31);
#31=COLOUR_RGB('TLS_NOCUT',0.499992370489052,0.499992370489052,0.499992370489052);
#32=MANIFOLD_SOLID_BREP('NOCUT',#33);
#33=CLOSED_SHELL('',(#105,#106,#107,#108,#109,#110,#111,#112,#113,#114,#115,#116,
     #117,#118,#119,#120,#121,#122,#123,#124,#125,#126,#127,#128,#129,#130,#131,
     #132,#133));
#34=TOROIDAL_SURFACE('',#356,22.425,0.5);
#35=TOROIDAL_SURFACE('',#401,11.0,1.0);
#36=CYLINDRICAL_SURFACE('',#354,21.925);
#37=CYLINDRICAL_SURFACE('',#364,31.4885);
#38=CYLINDRICAL_SURFACE('',#370,26.5);
#39=CYLINDRICAL_SURFACE('',#376,31.4885);
#40=CYLINDRICAL_SURFACE('',#380,31.25);
#41=CYLINDRICAL_SURFACE('',#384,39.0);
#42=CYLINDRICAL_SURFACE('',#388,16.0);
#43=CYLINDRICAL_SURFACE('',#392,8.0);
#44=CYLINDRICAL_SURFACE('',#396,20.0);
#45=CYLINDRICAL_SURFACE('',#400,12.0);
#46=CONICAL_SURFACE('',#350,12.6874125357568,8.29722000000014);
#47=CONICAL_SURFACE('',#352,22.225,35.0000000000012);
#48=CONICAL_SURFACE('',#360,23.8803847577293,75.0000000000006);
#49=CONICAL_SURFACE('',#366,31.4885,60.125);
#50=CONICAL_SURFACE('',#374,27.117867131588,60.1250000000001);
#51=FACE_BOUND('',#150,.T.);
#52=FACE_BOUND('',#151,.T.);
#53=FACE_BOUND('',#152,.T.);
#54=FACE_BOUND('',#153,.T.);
#55=FACE_BOUND('',#154,.T.);
#56=FACE_BOUND('',#155,.T.);
#57=FACE_BOUND('',#156,.T.);
#58=FACE_BOUND('',#157,.T.);
#59=FACE_BOUND('',#158,.T.);
#60=FACE_BOUND('',#159,.T.);
#61=FACE_BOUND('',#160,.T.);
#62=FACE_BOUND('',#161,.T.);
#63=FACE_BOUND('',#162,.T.);
#64=FACE_BOUND('',#163,.T.);
#65=FACE_BOUND('',#164,.T.);
#66=FACE_BOUND('',#165,.T.);
#67=FACE_BOUND('',#166,.T.);
#68=FACE_BOUND('',#167,.T.);
#69=FACE_BOUND('',#168,.T.);
#70=FACE_BOUND('',#169,.T.);
#71=FACE_BOUND('',#170,.T.);
#72=FACE_BOUND('',#171,.T.);
#73=FACE_BOUND('',#172,.T.);
#74=FACE_BOUND('',#173,.T.);
#75=FACE_BOUND('',#174,.T.);
#76=FACE_BOUND('',#175,.T.);
#77=FACE_BOUND('',#176,.T.);
#78=FACE_BOUND('',#177,.T.);
#79=FACE_BOUND('',#178,.T.);
#80=FACE_BOUND('',#179,.T.);
#81=FACE_BOUND('',#180,.T.);
#82=FACE_BOUND('',#181,.T.);
#83=FACE_BOUND('',#182,.T.);
#84=FACE_BOUND('',#183,.T.);
#85=FACE_BOUND('',#184,.T.);
#86=FACE_BOUND('',#185,.T.);
#87=FACE_BOUND('',#186,.T.);
#88=FACE_BOUND('',#187,.T.);
#89=FACE_BOUND('',#188,.T.);
#90=FACE_BOUND('',#189,.T.);
#91=FACE_BOUND('',#190,.T.);
#92=FACE_BOUND('',#191,.T.);
#93=FACE_BOUND('',#192,.T.);
#94=FACE_BOUND('',#193,.T.);
#95=FACE_BOUND('',#194,.T.);
#96=FACE_BOUND('',#195,.T.);
#97=FACE_BOUND('',#196,.T.);
#98=FACE_BOUND('',#197,.T.);
#99=FACE_BOUND('',#198,.T.);
#100=FACE_BOUND('',#199,.T.);
#101=FACE_BOUND('',#200,.T.);
#102=FACE_BOUND('',#201,.T.);
#103=FACE_BOUND('',#202,.T.);
#104=FACE_BOUND('',#203,.T.);
#105=ADVANCED_FACE('',(#146),#134,.T.);
#106=ADVANCED_FACE('',(#147),#135,.T.);
#107=ADVANCED_FACE('',(#51,#52),#46,.T.);
#108=ADVANCED_FACE('',(#53,#54),#47,.T.);
#109=ADVANCED_FACE('',(#55,#56),#36,.T.);
#110=ADVANCED_FACE('',(#57,#58),#34,.F.);
#111=ADVANCED_FACE('',(#59,#60),#136,.T.);
#112=ADVANCED_FACE('',(#61,#62),#48,.F.);
#113=ADVANCED_FACE('',(#63,#64),#137,.T.);
#114=ADVANCED_FACE('',(#65,#66),#37,.T.);
#115=ADVANCED_FACE('',(#67,#68),#49,.T.);
#116=ADVANCED_FACE('',(#69,#70),#138,.T.);
#117=ADVANCED_FACE('',(#71,#72),#38,.T.);
#118=ADVANCED_FACE('',(#73,#74),#139,.T.);
#119=ADVANCED_FACE('',(#75,#76),#50,.T.);
#120=ADVANCED_FACE('',(#77,#78),#39,.T.);
#121=ADVANCED_FACE('',(#79,#80),#140,.T.);
#122=ADVANCED_FACE('',(#81,#82),#40,.T.);
#123=ADVANCED_FACE('',(#83,#84),#141,.T.);
#124=ADVANCED_FACE('',(#85,#86),#41,.T.);
#125=ADVANCED_FACE('',(#87,#88),#142,.T.);
#126=ADVANCED_FACE('',(#89,#90),#42,.T.);
#127=ADVANCED_FACE('',(#91,#92),#143,.T.);
#128=ADVANCED_FACE('',(#93,#94),#43,.T.);
#129=ADVANCED_FACE('',(#95,#96),#144,.T.);
#130=ADVANCED_FACE('',(#97,#98),#44,.T.);
#131=ADVANCED_FACE('',(#99,#100),#145,.T.);
#132=ADVANCED_FACE('',(#101,#102),#45,.T.);
#133=ADVANCED_FACE('',(#103,#104),#35,.T.);
#134=PLANE('',#346);
#135=PLANE('',#348);
#136=PLANE('',#358);
#137=PLANE('',#362);
#138=PLANE('',#368);
#139=PLANE('',#372);
#140=PLANE('',#378);
#141=PLANE('',#382);
#142=PLANE('',#386);
#143=PLANE('',#390);
#144=PLANE('',#394);
#145=PLANE('',#398);
#146=FACE_OUTER_BOUND('',#148,.T.);
#147=FACE_OUTER_BOUND('',#149,.T.);
#148=EDGE_LOOP('',(#204));
#149=EDGE_LOOP('',(#205));
#150=EDGE_LOOP('',(#206));
#151=EDGE_LOOP('',(#207));
#152=EDGE_LOOP('',(#208));
#153=EDGE_LOOP('',(#209));
#154=EDGE_LOOP('',(#210));
#155=EDGE_LOOP('',(#211));
#156=EDGE_LOOP('',(#212));
#157=EDGE_LOOP('',(#213));
#158=EDGE_LOOP('',(#214));
#159=EDGE_LOOP('',(#215));
#160=EDGE_LOOP('',(#216));
#161=EDGE_LOOP('',(#217));
#162=EDGE_LOOP('',(#218));
#163=EDGE_LOOP('',(#219));
#164=EDGE_LOOP('',(#220));
#165=EDGE_LOOP('',(#221));
#166=EDGE_LOOP('',(#222));
#167=EDGE_LOOP('',(#223));
#168=EDGE_LOOP('',(#224));
#169=EDGE_LOOP('',(#225));
#170=EDGE_LOOP('',(#226));
#171=EDGE_LOOP('',(#227));
#172=EDGE_LOOP('',(#228));
#173=EDGE_LOOP('',(#229));
#174=EDGE_LOOP('',(#230));
#175=EDGE_LOOP('',(#231));
#176=EDGE_LOOP('',(#232));
#177=EDGE_LOOP('',(#233));
#178=EDGE_LOOP('',(#234));
#179=EDGE_LOOP('',(#235));
#180=EDGE_LOOP('',(#236));
#181=EDGE_LOOP('',(#237));
#182=EDGE_LOOP('',(#238));
#183=EDGE_LOOP('',(#239));
#184=EDGE_LOOP('',(#240));
#185=EDGE_LOOP('',(#241));
#186=EDGE_LOOP('',(#242));
#187=EDGE_LOOP('',(#243));
#188=EDGE_LOOP('',(#244));
#189=EDGE_LOOP('',(#245));
#190=EDGE_LOOP('',(#246));
#191=EDGE_LOOP('',(#247));
#192=EDGE_LOOP('',(#248));
#193=EDGE_LOOP('',(#249));
#194=EDGE_LOOP('',(#250));
#195=EDGE_LOOP('',(#251));
#196=EDGE_LOOP('',(#252));
#197=EDGE_LOOP('',(#253));
#198=EDGE_LOOP('',(#254));
#199=EDGE_LOOP('',(#255));
#200=EDGE_LOOP('',(#256));
#201=EDGE_LOOP('',(#257));
#202=EDGE_LOOP('',(#258));
#203=EDGE_LOOP('',(#259));
#204=ORIENTED_EDGE('',*,*,#288,.F.);
#205=ORIENTED_EDGE('',*,*,#289,.T.);
#206=ORIENTED_EDGE('',*,*,#290,.T.);
#207=ORIENTED_EDGE('',*,*,#289,.F.);
#208=ORIENTED_EDGE('',*,*,#291,.T.);
#209=ORIENTED_EDGE('',*,*,#290,.F.);
#210=ORIENTED_EDGE('',*,*,#292,.T.);
#211=ORIENTED_EDGE('',*,*,#291,.F.);
#212=ORIENTED_EDGE('',*,*,#293,.T.);
#213=ORIENTED_EDGE('',*,*,#292,.F.);
#214=ORIENTED_EDGE('',*,*,#294,.T.);
#215=ORIENTED_EDGE('',*,*,#293,.F.);
#216=ORIENTED_EDGE('',*,*,#295,.T.);
#217=ORIENTED_EDGE('',*,*,#294,.F.);
#218=ORIENTED_EDGE('',*,*,#296,.T.);
#219=ORIENTED_EDGE('',*,*,#295,.F.);
#220=ORIENTED_EDGE('',*,*,#297,.T.);
#221=ORIENTED_EDGE('',*,*,#296,.F.);
#222=ORIENTED_EDGE('',*,*,#298,.T.);
#223=ORIENTED_EDGE('',*,*,#297,.F.);
#224=ORIENTED_EDGE('',*,*,#299,.T.);
#225=ORIENTED_EDGE('',*,*,#298,.F.);
#226=ORIENTED_EDGE('',*,*,#300,.T.);
#227=ORIENTED_EDGE('',*,*,#299,.F.);
#228=ORIENTED_EDGE('',*,*,#301,.T.);
#229=ORIENTED_EDGE('',*,*,#300,.F.);
#230=ORIENTED_EDGE('',*,*,#302,.T.);
#231=ORIENTED_EDGE('',*,*,#301,.F.);
#232=ORIENTED_EDGE('',*,*,#303,.T.);
#233=ORIENTED_EDGE('',*,*,#302,.F.);
#234=ORIENTED_EDGE('',*,*,#304,.T.);
#235=ORIENTED_EDGE('',*,*,#303,.F.);
#236=ORIENTED_EDGE('',*,*,#305,.T.);
#237=ORIENTED_EDGE('',*,*,#304,.F.);
#238=ORIENTED_EDGE('',*,*,#306,.T.);
#239=ORIENTED_EDGE('',*,*,#305,.F.);
#240=ORIENTED_EDGE('',*,*,#307,.T.);
#241=ORIENTED_EDGE('',*,*,#306,.F.);
#242=ORIENTED_EDGE('',*,*,#308,.T.);
#243=ORIENTED_EDGE('',*,*,#307,.F.);
#244=ORIENTED_EDGE('',*,*,#309,.T.);
#245=ORIENTED_EDGE('',*,*,#308,.F.);
#246=ORIENTED_EDGE('',*,*,#310,.T.);
#247=ORIENTED_EDGE('',*,*,#309,.F.);
#248=ORIENTED_EDGE('',*,*,#311,.T.);
#249=ORIENTED_EDGE('',*,*,#310,.F.);
#250=ORIENTED_EDGE('',*,*,#312,.T.);
#251=ORIENTED_EDGE('',*,*,#311,.F.);
#252=ORIENTED_EDGE('',*,*,#313,.T.);
#253=ORIENTED_EDGE('',*,*,#312,.F.);
#254=ORIENTED_EDGE('',*,*,#314,.T.);
#255=ORIENTED_EDGE('',*,*,#313,.F.);
#256=ORIENTED_EDGE('',*,*,#315,.T.);
#257=ORIENTED_EDGE('',*,*,#314,.F.);
#258=ORIENTED_EDGE('',*,*,#288,.T.);
#259=ORIENTED_EDGE('',*,*,#315,.F.);
#260=VERTEX_POINT('',#520);
#261=VERTEX_POINT('',#523);
#262=VERTEX_POINT('',#526);
#263=VERTEX_POINT('',#529);
#264=VERTEX_POINT('',#532);
#265=VERTEX_POINT('',#535);
#266=VERTEX_POINT('',#538);
#267=VERTEX_POINT('',#541);
#268=VERTEX_POINT('',#544);
#269=VERTEX_POINT('',#547);
#270=VERTEX_POINT('',#550);
#271=VERTEX_POINT('',#553);
#272=VERTEX_POINT('',#556);
#273=VERTEX_POINT('',#559);
#274=VERTEX_POINT('',#562);
#275=VERTEX_POINT('',#565);
#276=VERTEX_POINT('',#568);
#277=VERTEX_POINT('',#571);
#278=VERTEX_POINT('',#574);
#279=VERTEX_POINT('',#577);
#280=VERTEX_POINT('',#580);
#281=VERTEX_POINT('',#583);
#282=VERTEX_POINT('',#586);
#283=VERTEX_POINT('',#589);
#284=VERTEX_POINT('',#592);
#285=VERTEX_POINT('',#595);
#286=VERTEX_POINT('',#598);
#287=VERTEX_POINT('',#601);
#288=EDGE_CURVE('',#260,#260,#316,.T.);
#289=EDGE_CURVE('',#261,#261,#317,.T.);
#290=EDGE_CURVE('',#262,#262,#318,.T.);
#291=EDGE_CURVE('',#263,#263,#319,.T.);
#292=EDGE_CURVE('',#264,#264,#320,.T.);
#293=EDGE_CURVE('',#265,#265,#321,.T.);
#294=EDGE_CURVE('',#266,#266,#322,.T.);
#295=EDGE_CURVE('',#267,#267,#323,.T.);
#296=EDGE_CURVE('',#268,#268,#324,.T.);
#297=EDGE_CURVE('',#269,#269,#325,.T.);
#298=EDGE_CURVE('',#270,#270,#326,.T.);
#299=EDGE_CURVE('',#271,#271,#327,.T.);
#300=EDGE_CURVE('',#272,#272,#328,.T.);
#301=EDGE_CURVE('',#273,#273,#329,.T.);
#302=EDGE_CURVE('',#274,#274,#330,.T.);
#303=EDGE_CURVE('',#275,#275,#331,.T.);
#304=EDGE_CURVE('',#276,#276,#332,.T.);
#305=EDGE_CURVE('',#277,#277,#333,.T.);
#306=EDGE_CURVE('',#278,#278,#334,.T.);
#307=EDGE_CURVE('',#279,#279,#335,.T.);
#308=EDGE_CURVE('',#280,#280,#336,.T.);
#309=EDGE_CURVE('',#281,#281,#337,.T.);
#310=EDGE_CURVE('',#282,#282,#338,.T.);
#311=EDGE_CURVE('',#283,#283,#339,.T.);
#312=EDGE_CURVE('',#284,#284,#340,.T.);
#313=EDGE_CURVE('',#285,#285,#341,.T.);
#314=EDGE_CURVE('',#286,#286,#342,.T.);
#315=EDGE_CURVE('',#287,#287,#343,.T.);
#316=CIRCLE('',#345,11.0);
#317=CIRCLE('',#347,12.6874125357568);
#318=CIRCLE('',#349,22.225);
#319=CIRCLE('',#351,21.925);
#320=CIRCLE('',#353,21.925);
#321=CIRCLE('',#355,22.425);
#322=CIRCLE('',#357,23.8803847577293);
#323=CIRCLE('',#359,25.0);
#324=CIRCLE('',#361,31.4885);
#325=CIRCLE('',#363,31.4885);
#326=CIRCLE('',#365,27.117867131588);
#327=CIRCLE('',#367,26.5);
#328=CIRCLE('',#369,26.5);
#329=CIRCLE('',#371,27.117867131588);
#330=CIRCLE('',#373,31.4885);
#331=CIRCLE('',#375,31.4885);
#332=CIRCLE('',#377,31.25);
#333=CIRCLE('',#379,31.25);
#334=CIRCLE('',#381,39.0);
#335=CIRCLE('',#383,39.0);
#336=CIRCLE('',#385,16.0);
#337=CIRCLE('',#387,16.0);
#338=CIRCLE('',#389,8.0);
#339=CIRCLE('',#391,8.0);
#340=CIRCLE('',#393,20.0);
#341=CIRCLE('',#395,20.0);
#342=CIRCLE('',#397,12.0);
#343=CIRCLE('',#399,12.0);
#344=AXIS2_PLACEMENT_3D('',#518,#402,#403);
#345=AXIS2_PLACEMENT_3D('',#519,#404,#405);
#346=AXIS2_PLACEMENT_3D('',#521,#406,#407);
#347=AXIS2_PLACEMENT_3D('',#522,#408,#409);
#348=AXIS2_PLACEMENT_3D('',#524,#410,#411);
#349=AXIS2_PLACEMENT_3D('',#525,#412,#413);
#350=AXIS2_PLACEMENT_3D('',#527,#414,#415);
#351=AXIS2_PLACEMENT_3D('',#528,#416,#417);
#352=AXIS2_PLACEMENT_3D('',#530,#418,#419);
#353=AXIS2_PLACEMENT_3D('',#531,#420,#421);
#354=AXIS2_PLACEMENT_3D('',#533,#422,#423);
#355=AXIS2_PLACEMENT_3D('',#534,#424,#425);
#356=AXIS2_PLACEMENT_3D('',#536,#426,#427);
#357=AXIS2_PLACEMENT_3D('',#537,#428,#429);
#358=AXIS2_PLACEMENT_3D('',#539,#430,#431);
#359=AXIS2_PLACEMENT_3D('',#540,#432,#433);
#360=AXIS2_PLACEMENT_3D('',#542,#434,#435);
#361=AXIS2_PLACEMENT_3D('',#543,#436,#437);
#362=AXIS2_PLACEMENT_3D('',#545,#438,#439);
#363=AXIS2_PLACEMENT_3D('',#546,#440,#441);
#364=AXIS2_PLACEMENT_3D('',#548,#442,#443);
#365=AXIS2_PLACEMENT_3D('',#549,#444,#445);
#366=AXIS2_PLACEMENT_3D('',#551,#446,#447);
#367=AXIS2_PLACEMENT_3D('',#552,#448,#449);
#368=AXIS2_PLACEMENT_3D('',#554,#450,#451);
#369=AXIS2_PLACEMENT_3D('',#555,#452,#453);
#370=AXIS2_PLACEMENT_3D('',#557,#454,#455);
#371=AXIS2_PLACEMENT_3D('',#558,#456,#457);
#372=AXIS2_PLACEMENT_3D('',#560,#458,#459);
#373=AXIS2_PLACEMENT_3D('',#561,#460,#461);
#374=AXIS2_PLACEMENT_3D('',#563,#462,#463);
#375=AXIS2_PLACEMENT_3D('',#564,#464,#465);
#376=AXIS2_PLACEMENT_3D('',#566,#466,#467);
#377=AXIS2_PLACEMENT_3D('',#567,#468,#469);
#378=AXIS2_PLACEMENT_3D('',#569,#470,#471);
#379=AXIS2_PLACEMENT_3D('',#570,#472,#473);
#380=AXIS2_PLACEMENT_3D('',#572,#474,#475);
#381=AXIS2_PLACEMENT_3D('',#573,#476,#477);
#382=AXIS2_PLACEMENT_3D('',#575,#478,#479);
#383=AXIS2_PLACEMENT_3D('',#576,#480,#481);
#384=AXIS2_PLACEMENT_3D('',#578,#482,#483);
#385=AXIS2_PLACEMENT_3D('',#579,#484,#485);
#386=AXIS2_PLACEMENT_3D('',#581,#486,#487);
#387=AXIS2_PLACEMENT_3D('',#582,#488,#489);
#388=AXIS2_PLACEMENT_3D('',#584,#490,#491);
#389=AXIS2_PLACEMENT_3D('',#585,#492,#493);
#390=AXIS2_PLACEMENT_3D('',#587,#494,#495);
#391=AXIS2_PLACEMENT_3D('',#588,#496,#497);
#392=AXIS2_PLACEMENT_3D('',#590,#498,#499);
#393=AXIS2_PLACEMENT_3D('',#591,#500,#501);
#394=AXIS2_PLACEMENT_3D('',#593,#502,#503);
#395=AXIS2_PLACEMENT_3D('',#594,#504,#505);
#396=AXIS2_PLACEMENT_3D('',#596,#506,#507);
#397=AXIS2_PLACEMENT_3D('',#597,#508,#509);
#398=AXIS2_PLACEMENT_3D('',#599,#510,#511);
#399=AXIS2_PLACEMENT_3D('',#600,#512,#513);
#400=AXIS2_PLACEMENT_3D('',#602,#514,#515);
#401=AXIS2_PLACEMENT_3D('',#603,#516,#517);
#402=DIRECTION('',(0.0,0.0,1.0));
#403=DIRECTION('',(1.0,0.0,0.0));
#404=DIRECTION('',(0.0,0.0,1.0));
#405=DIRECTION('',(1.0,0.0,0.0));
#406=DIRECTION('',(0.0,0.0,-1.0));
#407=DIRECTION('',(-1.0,0.0,0.0));
#408=DIRECTION('',(0.0,0.0,1.0));
#409=DIRECTION('',(1.0,0.0,0.0));
#410=DIRECTION('',(0.0,0.0,1.0));
#411=DIRECTION('',(1.0,0.0,0.0));
#412=DIRECTION('',(0.0,0.0,1.0));
#413=DIRECTION('',(1.0,0.0,0.0));
#414=DIRECTION('',(0.0,0.0,-1.0));
#415=DIRECTION('',(-1.0,0.0,-8.75448235597252E-17));
#416=DIRECTION('',(0.0,0.0,1.0));
#417=DIRECTION('',(1.0,0.0,0.0));
#418=DIRECTION('',(0.0,0.0,1.0));
#419=DIRECTION('',(1.0,0.0,0.0));
#420=DIRECTION('',(0.0,0.0,1.0));
#421=DIRECTION('',(1.0,0.0,0.0));
#422=DIRECTION('',(0.0,0.0,1.0));
#423=DIRECTION('',(1.0,0.0,0.0));
#424=DIRECTION('',(0.0,0.0,1.0));
#425=DIRECTION('',(1.0,0.0,0.0));
#426=DIRECTION('',(0.0,0.0,1.0));
#427=DIRECTION('',(1.0,0.0,0.0));
#428=DIRECTION('',(0.0,0.0,1.0));
#429=DIRECTION('',(1.0,0.0,0.0));
#430=DIRECTION('',(0.0,0.0,1.0));
#431=DIRECTION('',(1.0,0.0,0.0));
#432=DIRECTION('',(0.0,0.0,1.0));
#433=DIRECTION('',(1.0,0.0,0.0));
#434=DIRECTION('',(0.0,0.0,1.0));
#435=DIRECTION('',(1.0,0.0,6.00421148123539E-18));
#436=DIRECTION('',(0.0,0.0,1.0));
#437=DIRECTION('',(1.0,0.0,0.0));
#438=DIRECTION('',(0.0,0.0,1.0));
#439=DIRECTION('',(1.0,0.0,0.0));
#440=DIRECTION('',(0.0,0.0,1.0));
#441=DIRECTION('',(1.0,0.0,0.0));
#442=DIRECTION('',(0.0,0.0,1.0));
#443=DIRECTION('',(1.0,0.0,0.0));
#444=DIRECTION('',(0.0,0.0,1.0));
#445=DIRECTION('',(1.0,0.0,0.0));
#446=DIRECTION('',(0.0,0.0,1.0));
#447=DIRECTION('',(1.0,0.0,1.85971694204169E-17));
#448=DIRECTION('',(0.0,0.0,1.0));
#449=DIRECTION('',(1.0,0.0,0.0));
#450=DIRECTION('',(0.0,0.0,-1.0));
#451=DIRECTION('',(-1.0,0.0,0.0));
#452=DIRECTION('',(0.0,0.0,1.0));
#453=DIRECTION('',(1.0,0.0,0.0));
#454=DIRECTION('',(0.0,0.0,1.0));
#455=DIRECTION('',(1.0,0.0,0.0));
#456=DIRECTION('',(0.0,0.0,1.0));
#457=DIRECTION('',(1.0,0.0,0.0));
#458=DIRECTION('',(0.0,0.0,1.0));
#459=DIRECTION('',(1.0,0.0,0.0));
#460=DIRECTION('',(0.0,0.0,1.0));
#461=DIRECTION('',(1.0,0.0,0.0));
#462=DIRECTION('',(0.0,0.0,-1.0));
#463=DIRECTION('',(-1.0,0.0,6.08355255410927E-17));
#464=DIRECTION('',(0.0,0.0,1.0));
#465=DIRECTION('',(1.0,0.0,0.0));
#466=DIRECTION('',(0.0,0.0,1.0));
#467=DIRECTION('',(1.0,0.0,0.0));
#468=DIRECTION('',(0.0,0.0,1.0));
#469=DIRECTION('',(1.0,0.0,0.0));
#470=DIRECTION('',(0.0,0.0,-1.0));
#471=DIRECTION('',(-1.0,0.0,0.0));
#472=DIRECTION('',(0.0,0.0,1.0));
#473=DIRECTION('',(1.0,0.0,0.0));
#474=DIRECTION('',(0.0,0.0,1.0));
#475=DIRECTION('',(1.0,0.0,0.0));
#476=DIRECTION('',(0.0,0.0,1.0));
#477=DIRECTION('',(1.0,0.0,0.0));
#478=DIRECTION('',(0.0,0.0,1.0));
#479=DIRECTION('',(1.0,0.0,0.0));
#480=DIRECTION('',(0.0,0.0,1.0));
#481=DIRECTION('',(1.0,0.0,0.0));
#482=DIRECTION('',(0.0,0.0,1.0));
#483=DIRECTION('',(1.0,0.0,0.0));
#484=DIRECTION('',(0.0,0.0,1.0));
#485=DIRECTION('',(1.0,0.0,0.0));
#486=DIRECTION('',(0.0,0.0,-1.0));
#487=DIRECTION('',(-1.0,0.0,0.0));
#488=DIRECTION('',(0.0,0.0,1.0));
#489=DIRECTION('',(1.0,0.0,0.0));
#490=DIRECTION('',(0.0,0.0,1.0));
#491=DIRECTION('',(1.0,0.0,0.0));
#492=DIRECTION('',(0.0,0.0,1.0));
#493=DIRECTION('',(1.0,0.0,0.0));
#494=DIRECTION('',(0.0,0.0,-1.0));
#495=DIRECTION('',(-1.0,0.0,0.0));
#496=DIRECTION('',(0.0,0.0,1.0));
#497=DIRECTION('',(1.0,0.0,0.0));
#498=DIRECTION('',(0.0,0.0,1.0));
#499=DIRECTION('',(1.0,0.0,0.0));
#500=DIRECTION('',(0.0,0.0,1.0));
#501=DIRECTION('',(1.0,0.0,0.0));
#502=DIRECTION('',(0.0,0.0,1.0));
#503=DIRECTION('',(1.0,0.0,0.0));
#504=DIRECTION('',(0.0,0.0,1.0));
#505=DIRECTION('',(1.0,0.0,0.0));
#506=DIRECTION('',(0.0,0.0,1.0));
#507=DIRECTION('',(1.0,0.0,0.0));
#508=DIRECTION('',(0.0,0.0,1.0));
#509=DIRECTION('',(1.0,0.0,0.0));
#510=DIRECTION('',(0.0,0.0,-1.0));
#511=DIRECTION('',(-1.0,0.0,0.0));
#512=DIRECTION('',(0.0,0.0,1.0));
#513=DIRECTION('',(1.0,0.0,0.0));
#514=DIRECTION('',(0.0,0.0,1.0));
#515=DIRECTION('',(1.0,0.0,0.0));
#516=DIRECTION('',(0.0,0.0,1.0));
#517=DIRECTION('',(1.0,0.0,0.0));
#518=CARTESIAN_POINT('',(0.0,0.0,0.0));
#519=CARTESIAN_POINT('',(0.0,0.0,-92.0));
#520=CARTESIAN_POINT('',(11.0,0.0,-92.0));
#521=CARTESIAN_POINT('',(0.0,11.0,-92.0));
#522=CARTESIAN_POINT('',(0.0,0.0,65.4));
#523=CARTESIAN_POINT('',(12.6874125357568,0.0,65.4));
#524=CARTESIAN_POINT('',(0.0,8.50675,65.4));
#525=CARTESIAN_POINT('',(0.0,0.0,0.0));
#526=CARTESIAN_POINT('',(22.225,0.0,0.0));
#527=CARTESIAN_POINT('',(0.0,0.0,65.4));
#528=CARTESIAN_POINT('',(0.0,0.0,-0.428444402022637));
#529=CARTESIAN_POINT('',(21.925,0.0,-0.428444402022637));
#530=CARTESIAN_POINT('',(0.0,0.0,0.0));
#531=CARTESIAN_POINT('',(0.0,0.0,-0.799999999999988));
#532=CARTESIAN_POINT('',(21.925,0.0,-0.799999999999988));
#533=CARTESIAN_POINT('',(0.0,0.0,0.0));
#534=CARTESIAN_POINT('',(0.0,0.0,-1.29999999999999));
#535=CARTESIAN_POINT('',(22.425,0.0,-1.29999999999999));
#536=CARTESIAN_POINT('',(0.0,0.0,-0.799999999999988));
#537=CARTESIAN_POINT('',(0.0,0.0,-1.29999999999999));
#538=CARTESIAN_POINT('',(23.8803847577293,0.0,-1.29999999999999));
#539=CARTESIAN_POINT('',(0.0,22.425,-1.29999999999999));
#540=CARTESIAN_POINT('',(0.0,0.0,-0.999999999999995));
#541=CARTESIAN_POINT('',(25.0,0.0,-0.999999999999995));
#542=CARTESIAN_POINT('',(0.0,0.0,-1.29999999999999));
#543=CARTESIAN_POINT('',(0.0,0.0,-1.0));
#544=CARTESIAN_POINT('',(31.4885,0.0,-1.0));
#545=CARTESIAN_POINT('',(0.0,25.0,-0.999999999999997));
#546=CARTESIAN_POINT('',(0.0,0.0,-11.589311618914));
#547=CARTESIAN_POINT('',(31.4885,0.0,-11.589311618914));
#548=CARTESIAN_POINT('',(0.0,0.0,0.0));
#549=CARTESIAN_POINT('',(0.0,0.0,-14.1));
#550=CARTESIAN_POINT('',(27.117867131588,0.0,-14.1));
#551=CARTESIAN_POINT('',(0.0,0.0,-11.589311618914));
#552=CARTESIAN_POINT('',(0.0,0.0,-14.1));
#553=CARTESIAN_POINT('',(26.5,0.0,-14.1));
#554=CARTESIAN_POINT('',(0.0,27.117867131588,-14.1));
#555=CARTESIAN_POINT('',(0.0,0.0,-19.1));
#556=CARTESIAN_POINT('',(26.5,0.0,-19.1));
#557=CARTESIAN_POINT('',(0.0,0.0,0.0));
#558=CARTESIAN_POINT('',(0.0,0.0,-19.1));
#559=CARTESIAN_POINT('',(27.117867131588,0.0,-19.1));
#560=CARTESIAN_POINT('',(0.0,26.5,-19.1));
#561=CARTESIAN_POINT('',(0.0,0.0,-21.610688381086));
#562=CARTESIAN_POINT('',(31.4885,0.0,-21.610688381086));
#563=CARTESIAN_POINT('',(0.0,0.0,-19.1));
#564=CARTESIAN_POINT('',(0.0,0.0,-27.0));
#565=CARTESIAN_POINT('',(31.4885,0.0,-27.0));
#566=CARTESIAN_POINT('',(0.0,0.0,0.0));
#567=CARTESIAN_POINT('',(0.0,0.0,-27.0));
#568=CARTESIAN_POINT('',(31.25,0.0,-27.0));
#569=CARTESIAN_POINT('',(0.0,31.4885,-27.0));
#570=CARTESIAN_POINT('',(0.0,0.0,-30.0));
#571=CARTESIAN_POINT('',(31.25,0.0,-30.0));
#572=CARTESIAN_POINT('',(0.0,0.0,0.0));
#573=CARTESIAN_POINT('',(0.0,0.0,-30.0));
#574=CARTESIAN_POINT('',(39.0,0.0,-30.0));
#575=CARTESIAN_POINT('',(0.0,31.25,-30.0));
#576=CARTESIAN_POINT('',(0.0,0.0,-50.0));
#577=CARTESIAN_POINT('',(39.0,0.0,-50.0));
#578=CARTESIAN_POINT('',(0.0,0.0,0.0));
#579=CARTESIAN_POINT('',(0.0,0.0,-50.0));
#580=CARTESIAN_POINT('',(16.0,0.0,-50.0));
#581=CARTESIAN_POINT('',(0.0,39.0,-50.0));
#582=CARTESIAN_POINT('',(0.0,0.0,-70.0));
#583=CARTESIAN_POINT('',(16.0,0.0,-70.0));
#584=CARTESIAN_POINT('',(0.0,0.0,0.0));
#585=CARTESIAN_POINT('',(0.0,0.0,-70.0));
#586=CARTESIAN_POINT('',(8.0,0.0,-70.0));
#587=CARTESIAN_POINT('',(0.0,16.0,-70.0));
#588=CARTESIAN_POINT('',(0.0,0.0,-76.0));
#589=CARTESIAN_POINT('',(8.0,0.0,-76.0));
#590=CARTESIAN_POINT('',(0.0,0.0,0.0));
#591=CARTESIAN_POINT('',(0.0,0.0,-76.0));
#592=CARTESIAN_POINT('',(20.0,0.0,-76.0));
#593=CARTESIAN_POINT('',(0.0,8.0,-76.0));
#594=CARTESIAN_POINT('',(0.0,0.0,-82.0));
#595=CARTESIAN_POINT('',(20.0,0.0,-82.0));
#596=CARTESIAN_POINT('',(0.0,0.0,0.0));
#597=CARTESIAN_POINT('',(0.0,0.0,-82.0));
#598=CARTESIAN_POINT('',(12.0,0.0,-82.0));
#599=CARTESIAN_POINT('',(0.0,20.0,-82.0));
#600=CARTESIAN_POINT('',(0.0,0.0,-91.0));
#601=CARTESIAN_POINT('',(12.0,0.0,-91.0));
#602=CARTESIAN_POINT('',(0.0,0.0,0.0));
#603=CARTESIAN_POINT('',(0.0,0.0,-91.0));
#604=MECHANICAL_DESIGN_GEOMETRIC_PRESENTATION_REPRESENTATION('',(#24),#605);
#605=(GEOMETRIC_REPRESENTATION_CONTEXT(3)GLOBAL_UNCERTAINTY_ASSIGNED_CONTEXT((#606))
     GLOBAL_UNIT_ASSIGNED_CONTEXT((#612,#608,#607))REPRESENTATION_CONTEXT('392','TOP_LEVEL_ASSEMBLY_PART'));
#606=UNCERTAINTY_MEASURE_WITH_UNIT(LENGTH_MEASURE(2.0E-5),#612,'DISTANCE_ACCURACY_VALUE',
     'Maximum Tolerance applied to model');
#607=(NAMED_UNIT(*)SI_UNIT($,.STERADIAN.)SOLID_ANGLE_UNIT());
#608=(CONVERSION_BASED_UNIT('DEGREE',#610)NAMED_UNIT(*)PLANE_ANGLE_UNIT());
#609=DIMENSIONAL_EXPONENTS(0.0,0.0,0.0,0.0,0.0,0.0,0.0);
#610=PLANE_ANGLE_MEASURE_WITH_UNIT(PLANE_ANGLE_MEASURE(0.0174532925),#611);
#611=(NAMED_UNIT(*)PLANE_ANGLE_UNIT()SI_UNIT($,.RADIAN.));
#612=(LENGTH_UNIT()NAMED_UNIT(*)SI_UNIT(.MILLI.,.METRE.));
#613=CARTESIAN_POINT('',(0.0,0.0,0.0));
#614=DIRECTION('',(0.0,0.0,1.0));
#615=DIRECTION('',(1.0,0.0,0.0));
#616=AXIS2_PLACEMENT_3D('PCS',#613,#614,#615);
#617=CARTESIAN_POINT('',(0.0,0.0,0.0));
#618=DIRECTION('',(0.0,0.0,1.0));
#619=DIRECTION('',(1.0,0.0,0.0));
#620=AXIS2_PLACEMENT_3D('MCS',#617,#618,#619);
#621=CARTESIAN_POINT('',(0.0,0.0,-50.0));
#622=DIRECTION('',(0.0,0.0,1.0));
#623=DIRECTION('',(1.0,0.0,0.0));
#624=AXIS2_PLACEMENT_3D('CSW',#621,#622,#623);
#625=CONSTRUCTIVE_GEOMETRY_REPRESENTATION('supplemental geometry',(#616,#620,#624),
     #605);
#626=CONSTRUCTIVE_GEOMETRY_REPRESENTATION_RELATIONSHIP('supplemental geometry',$,
     #22,#625);
ENDSEC;
END-ISO-10303-21;
