ISO-10303-21;
HEADER;
FILE_DESCRIPTION(
/* description */ ('3-D model version:1'),
/* implementation_level */ '2;1');
FILE_NAME(
/* name */ '392.55505C4027045',
/* time_stamp */ '2016-12-02T13:59:03',
/* author */ ('InteractiveCad'),
/* organization */ ('AB Sandvik Coromant'),
/* preprocessor_version */ 'ST-DEVELOPER v11',
/* originating_system */ 'SIEMENS UGS NX 6.0',
/* authorization */ '');
FILE_SCHEMA(('AUTOMOTIVE_DESIGN'));
ENDSEC;
DATA;
#10=SHAPE_REPRESENTATION_RELATIONSHIP('None','relationship between 392.55505C4027045uu_stp-None and 392.55505C402704\X\0D5uu_stp-None',
     #22,#11);
#11=ADVANCED_BREP_SHAPE_REPRESENTATION('392.55505C4027045uu_stp-None',(#32),#565);
#12=SHAPE_DEFINITION_REPRESENTATION(#13,#22);
#13=PRODUCT_DEFINITION_SHAPE('','',#14);
#14=PRODUCT_DEFINITION(' ','',#16,#15);
#15=PRODUCT_DEFINITION_CONTEXT('part definition',#21,'design');
#16=PRODUCT_DEFINITION_FORMATION_WITH_SPECIFIED_SOURCE(' ',' ',#18,.NOT_KNOWN.);
#17=PRODUCT_RELATED_PRODUCT_CATEGORY('part','',(#18));
#18=PRODUCT('392.55505C4027045uu_stp','392.55505C4027045uu_stp',' ',(#19));
#19=PRODUCT_CONTEXT(' ',#21,'mechanical');
#20=APPLICATION_PROTOCOL_DEFINITION('international standard','automotive_design',
     2001,#21);
#21=APPLICATION_CONTEXT('core data for automotive mechanical design processes');
#22=SHAPE_REPRESENTATION('392.55505C4027045uu_stp-None',(#322),#565);
#23=PRESENTATION_LAYER_ASSIGNMENT('1','Layer 1',(#32));
#24=STYLED_ITEM('',(#25),#32);
#25=PRESENTATION_STYLE_ASSIGNMENT((#26));
#26=SURFACE_STYLE_USAGE(.BOTH.,#27);
#27=SURFACE_SIDE_STYLE('',(#28));
#28=SURFACE_STYLE_FILL_AREA(#29);
#29=FILL_AREA_STYLE('',(#30));
#30=FILL_AREA_STYLE_COLOUR('',#31);
#31=COLOUR_RGB('TLS_NOCUT',0.499992370489052,0.499992370489052,0.499992370489052);
#32=MANIFOLD_SOLID_BREP('NOCUT',#33);
#33=CLOSED_SHELL('',(#54,#55,#56,#57,#58,#59,#60,#61,#62,#63,#64,#65,#66,#67,#68,
     #69,#70,#71,#72,#73,#74,#75,#76,#77,#78,#79,#80));
#34=CONICAL_SURFACE('',#340,12.6874125357568,8.29722000000014);
#35=CONICAL_SURFACE('',#342,22.225,35.0000000000012);
#36=CONICAL_SURFACE('',#350,23.8803847577293,75.0000000000006);
#37=CONICAL_SURFACE('',#356,31.4885,60.125);
#38=CONICAL_SURFACE('',#364,27.117867131588,60.1250000000001);
#39=FACE_OUTER_BOUND('',#152,.T.);
#40=FACE_OUTER_BOUND('',#153,.T.);
#41=TOROIDAL_SURFACE('',#335,8.0,1.0);
#42=TOROIDAL_SURFACE('',#346,22.425,0.5);
#43=PLANE('',#327);
#44=PLANE('',#331);
#45=PLANE('',#336);
#46=PLANE('',#338);
#47=PLANE('',#348);
#48=PLANE('',#352);
#49=PLANE('',#358);
#50=PLANE('',#362);
#51=PLANE('',#368);
#52=PLANE('',#372);
#53=PLANE('',#375);
#54=ADVANCED_FACE('',(#90,#91),#81,.T.);
#55=ADVANCED_FACE('',(#92,#93),#43,.T.);
#56=ADVANCED_FACE('',(#94,#95),#82,.T.);
#57=ADVANCED_FACE('',(#96,#97),#44,.T.);
#58=ADVANCED_FACE('',(#98,#99),#83,.T.);
#59=ADVANCED_FACE('',(#100,#101),#41,.T.);
#60=ADVANCED_FACE('',(#39),#45,.T.);
#61=ADVANCED_FACE('',(#40),#46,.T.);
#62=ADVANCED_FACE('',(#102,#103),#34,.T.);
#63=ADVANCED_FACE('',(#104,#105),#35,.T.);
#64=ADVANCED_FACE('',(#106,#107),#84,.T.);
#65=ADVANCED_FACE('',(#108,#109),#42,.F.);
#66=ADVANCED_FACE('',(#110,#111),#47,.T.);
#67=ADVANCED_FACE('',(#112,#113),#36,.F.);
#68=ADVANCED_FACE('',(#114,#115),#48,.T.);
#69=ADVANCED_FACE('',(#116,#117),#85,.T.);
#70=ADVANCED_FACE('',(#118,#119),#37,.T.);
#71=ADVANCED_FACE('',(#120,#121),#49,.T.);
#72=ADVANCED_FACE('',(#122,#123),#86,.T.);
#73=ADVANCED_FACE('',(#124,#125),#50,.T.);
#74=ADVANCED_FACE('',(#126,#127),#38,.T.);
#75=ADVANCED_FACE('',(#128,#129),#87,.T.);
#76=ADVANCED_FACE('',(#130,#131),#51,.T.);
#77=ADVANCED_FACE('',(#132,#133),#88,.T.);
#78=ADVANCED_FACE('',(#134,#135),#52,.T.);
#79=ADVANCED_FACE('',(#136,#137),#89,.T.);
#80=ADVANCED_FACE('',(#138,#139),#53,.T.);
#81=CYLINDRICAL_SURFACE('',#325,6.0);
#82=CYLINDRICAL_SURFACE('',#329,17.0);
#83=CYLINDRICAL_SURFACE('',#333,9.0);
#84=CYLINDRICAL_SURFACE('',#344,21.925);
#85=CYLINDRICAL_SURFACE('',#354,31.4885);
#86=CYLINDRICAL_SURFACE('',#360,26.5);
#87=CYLINDRICAL_SURFACE('',#366,31.4885);
#88=CYLINDRICAL_SURFACE('',#370,30.0);
#89=CYLINDRICAL_SURFACE('',#374,13.5);
#90=FACE_BOUND('',#140,.T.);
#91=FACE_BOUND('',#141,.T.);
#92=FACE_BOUND('',#142,.T.);
#93=FACE_BOUND('',#143,.T.);
#94=FACE_BOUND('',#144,.T.);
#95=FACE_BOUND('',#145,.T.);
#96=FACE_BOUND('',#146,.T.);
#97=FACE_BOUND('',#147,.T.);
#98=FACE_BOUND('',#148,.T.);
#99=FACE_BOUND('',#149,.T.);
#100=FACE_BOUND('',#150,.T.);
#101=FACE_BOUND('',#151,.T.);
#102=FACE_BOUND('',#154,.T.);
#103=FACE_BOUND('',#155,.T.);
#104=FACE_BOUND('',#156,.T.);
#105=FACE_BOUND('',#157,.T.);
#106=FACE_BOUND('',#158,.T.);
#107=FACE_BOUND('',#159,.T.);
#108=FACE_BOUND('',#160,.T.);
#109=FACE_BOUND('',#161,.T.);
#110=FACE_BOUND('',#162,.T.);
#111=FACE_BOUND('',#163,.T.);
#112=FACE_BOUND('',#164,.T.);
#113=FACE_BOUND('',#165,.T.);
#114=FACE_BOUND('',#166,.T.);
#115=FACE_BOUND('',#167,.T.);
#116=FACE_BOUND('',#168,.T.);
#117=FACE_BOUND('',#169,.T.);
#118=FACE_BOUND('',#170,.T.);
#119=FACE_BOUND('',#171,.T.);
#120=FACE_BOUND('',#172,.T.);
#121=FACE_BOUND('',#173,.T.);
#122=FACE_BOUND('',#174,.T.);
#123=FACE_BOUND('',#175,.T.);
#124=FACE_BOUND('',#176,.T.);
#125=FACE_BOUND('',#177,.T.);
#126=FACE_BOUND('',#178,.T.);
#127=FACE_BOUND('',#179,.T.);
#128=FACE_BOUND('',#180,.T.);
#129=FACE_BOUND('',#181,.T.);
#130=FACE_BOUND('',#182,.T.);
#131=FACE_BOUND('',#183,.T.);
#132=FACE_BOUND('',#184,.T.);
#133=FACE_BOUND('',#185,.T.);
#134=FACE_BOUND('',#186,.T.);
#135=FACE_BOUND('',#187,.T.);
#136=FACE_BOUND('',#188,.T.);
#137=FACE_BOUND('',#189,.T.);
#138=FACE_BOUND('',#190,.T.);
#139=FACE_BOUND('',#191,.T.);
#140=EDGE_LOOP('',(#192));
#141=EDGE_LOOP('',(#193));
#142=EDGE_LOOP('',(#194));
#143=EDGE_LOOP('',(#195));
#144=EDGE_LOOP('',(#196));
#145=EDGE_LOOP('',(#197));
#146=EDGE_LOOP('',(#198));
#147=EDGE_LOOP('',(#199));
#148=EDGE_LOOP('',(#200));
#149=EDGE_LOOP('',(#201));
#150=EDGE_LOOP('',(#202));
#151=EDGE_LOOP('',(#203));
#152=EDGE_LOOP('',(#204));
#153=EDGE_LOOP('',(#205));
#154=EDGE_LOOP('',(#206));
#155=EDGE_LOOP('',(#207));
#156=EDGE_LOOP('',(#208));
#157=EDGE_LOOP('',(#209));
#158=EDGE_LOOP('',(#210));
#159=EDGE_LOOP('',(#211));
#160=EDGE_LOOP('',(#212));
#161=EDGE_LOOP('',(#213));
#162=EDGE_LOOP('',(#214));
#163=EDGE_LOOP('',(#215));
#164=EDGE_LOOP('',(#216));
#165=EDGE_LOOP('',(#217));
#166=EDGE_LOOP('',(#218));
#167=EDGE_LOOP('',(#219));
#168=EDGE_LOOP('',(#220));
#169=EDGE_LOOP('',(#221));
#170=EDGE_LOOP('',(#222));
#171=EDGE_LOOP('',(#223));
#172=EDGE_LOOP('',(#224));
#173=EDGE_LOOP('',(#225));
#174=EDGE_LOOP('',(#226));
#175=EDGE_LOOP('',(#227));
#176=EDGE_LOOP('',(#228));
#177=EDGE_LOOP('',(#229));
#178=EDGE_LOOP('',(#230));
#179=EDGE_LOOP('',(#231));
#180=EDGE_LOOP('',(#232));
#181=EDGE_LOOP('',(#233));
#182=EDGE_LOOP('',(#234));
#183=EDGE_LOOP('',(#235));
#184=EDGE_LOOP('',(#236));
#185=EDGE_LOOP('',(#237));
#186=EDGE_LOOP('',(#238));
#187=EDGE_LOOP('',(#239));
#188=EDGE_LOOP('',(#240));
#189=EDGE_LOOP('',(#241));
#190=EDGE_LOOP('',(#242));
#191=EDGE_LOOP('',(#243));
#192=ORIENTED_EDGE('',*,*,#270,.T.);
#193=ORIENTED_EDGE('',*,*,#271,.F.);
#194=ORIENTED_EDGE('',*,*,#272,.T.);
#195=ORIENTED_EDGE('',*,*,#270,.F.);
#196=ORIENTED_EDGE('',*,*,#273,.T.);
#197=ORIENTED_EDGE('',*,*,#272,.F.);
#198=ORIENTED_EDGE('',*,*,#274,.T.);
#199=ORIENTED_EDGE('',*,*,#273,.F.);
#200=ORIENTED_EDGE('',*,*,#275,.T.);
#201=ORIENTED_EDGE('',*,*,#274,.F.);
#202=ORIENTED_EDGE('',*,*,#276,.T.);
#203=ORIENTED_EDGE('',*,*,#275,.F.);
#204=ORIENTED_EDGE('',*,*,#276,.F.);
#205=ORIENTED_EDGE('',*,*,#277,.T.);
#206=ORIENTED_EDGE('',*,*,#278,.T.);
#207=ORIENTED_EDGE('',*,*,#277,.F.);
#208=ORIENTED_EDGE('',*,*,#279,.T.);
#209=ORIENTED_EDGE('',*,*,#278,.F.);
#210=ORIENTED_EDGE('',*,*,#280,.T.);
#211=ORIENTED_EDGE('',*,*,#279,.F.);
#212=ORIENTED_EDGE('',*,*,#281,.T.);
#213=ORIENTED_EDGE('',*,*,#280,.F.);
#214=ORIENTED_EDGE('',*,*,#282,.T.);
#215=ORIENTED_EDGE('',*,*,#281,.F.);
#216=ORIENTED_EDGE('',*,*,#283,.T.);
#217=ORIENTED_EDGE('',*,*,#282,.F.);
#218=ORIENTED_EDGE('',*,*,#284,.T.);
#219=ORIENTED_EDGE('',*,*,#283,.F.);
#220=ORIENTED_EDGE('',*,*,#285,.T.);
#221=ORIENTED_EDGE('',*,*,#284,.F.);
#222=ORIENTED_EDGE('',*,*,#286,.T.);
#223=ORIENTED_EDGE('',*,*,#285,.F.);
#224=ORIENTED_EDGE('',*,*,#287,.T.);
#225=ORIENTED_EDGE('',*,*,#286,.F.);
#226=ORIENTED_EDGE('',*,*,#288,.T.);
#227=ORIENTED_EDGE('',*,*,#287,.F.);
#228=ORIENTED_EDGE('',*,*,#289,.T.);
#229=ORIENTED_EDGE('',*,*,#288,.F.);
#230=ORIENTED_EDGE('',*,*,#290,.T.);
#231=ORIENTED_EDGE('',*,*,#289,.F.);
#232=ORIENTED_EDGE('',*,*,#291,.T.);
#233=ORIENTED_EDGE('',*,*,#290,.F.);
#234=ORIENTED_EDGE('',*,*,#292,.T.);
#235=ORIENTED_EDGE('',*,*,#291,.F.);
#236=ORIENTED_EDGE('',*,*,#293,.T.);
#237=ORIENTED_EDGE('',*,*,#292,.F.);
#238=ORIENTED_EDGE('',*,*,#294,.T.);
#239=ORIENTED_EDGE('',*,*,#293,.F.);
#240=ORIENTED_EDGE('',*,*,#295,.T.);
#241=ORIENTED_EDGE('',*,*,#294,.F.);
#242=ORIENTED_EDGE('',*,*,#271,.T.);
#243=ORIENTED_EDGE('',*,*,#295,.F.);
#244=VERTEX_POINT('',#486);
#245=VERTEX_POINT('',#488);
#246=VERTEX_POINT('',#491);
#247=VERTEX_POINT('',#494);
#248=VERTEX_POINT('',#497);
#249=VERTEX_POINT('',#500);
#250=VERTEX_POINT('',#503);
#251=VERTEX_POINT('',#507);
#252=VERTEX_POINT('',#510);
#253=VERTEX_POINT('',#513);
#254=VERTEX_POINT('',#516);
#255=VERTEX_POINT('',#519);
#256=VERTEX_POINT('',#522);
#257=VERTEX_POINT('',#525);
#258=VERTEX_POINT('',#528);
#259=VERTEX_POINT('',#531);
#260=VERTEX_POINT('',#534);
#261=VERTEX_POINT('',#537);
#262=VERTEX_POINT('',#540);
#263=VERTEX_POINT('',#543);
#264=VERTEX_POINT('',#546);
#265=VERTEX_POINT('',#549);
#266=VERTEX_POINT('',#552);
#267=VERTEX_POINT('',#555);
#268=VERTEX_POINT('',#558);
#269=VERTEX_POINT('',#561);
#270=EDGE_CURVE('',#244,#244,#296,.T.);
#271=EDGE_CURVE('',#245,#245,#297,.T.);
#272=EDGE_CURVE('',#246,#246,#298,.T.);
#273=EDGE_CURVE('',#247,#247,#299,.T.);
#274=EDGE_CURVE('',#248,#248,#300,.T.);
#275=EDGE_CURVE('',#249,#249,#301,.T.);
#276=EDGE_CURVE('',#250,#250,#302,.T.);
#277=EDGE_CURVE('',#251,#251,#303,.T.);
#278=EDGE_CURVE('',#252,#252,#304,.T.);
#279=EDGE_CURVE('',#253,#253,#305,.T.);
#280=EDGE_CURVE('',#254,#254,#306,.T.);
#281=EDGE_CURVE('',#255,#255,#307,.T.);
#282=EDGE_CURVE('',#256,#256,#308,.T.);
#283=EDGE_CURVE('',#257,#257,#309,.T.);
#284=EDGE_CURVE('',#258,#258,#310,.T.);
#285=EDGE_CURVE('',#259,#259,#311,.T.);
#286=EDGE_CURVE('',#260,#260,#312,.T.);
#287=EDGE_CURVE('',#261,#261,#313,.T.);
#288=EDGE_CURVE('',#262,#262,#314,.T.);
#289=EDGE_CURVE('',#263,#263,#315,.T.);
#290=EDGE_CURVE('',#264,#264,#316,.T.);
#291=EDGE_CURVE('',#265,#265,#317,.T.);
#292=EDGE_CURVE('',#266,#266,#318,.T.);
#293=EDGE_CURVE('',#267,#267,#319,.T.);
#294=EDGE_CURVE('',#268,#268,#320,.T.);
#295=EDGE_CURVE('',#269,#269,#321,.T.);
#296=CIRCLE('',#323,6.0);
#297=CIRCLE('',#324,6.0);
#298=CIRCLE('',#326,17.0);
#299=CIRCLE('',#328,17.0);
#300=CIRCLE('',#330,9.0);
#301=CIRCLE('',#332,9.0);
#302=CIRCLE('',#334,8.0);
#303=CIRCLE('',#337,12.6874125357568);
#304=CIRCLE('',#339,22.225);
#305=CIRCLE('',#341,21.925);
#306=CIRCLE('',#343,21.925);
#307=CIRCLE('',#345,22.425);
#308=CIRCLE('',#347,23.8803847577293);
#309=CIRCLE('',#349,25.0);
#310=CIRCLE('',#351,31.4885);
#311=CIRCLE('',#353,31.4885);
#312=CIRCLE('',#355,27.117867131588);
#313=CIRCLE('',#357,26.5);
#314=CIRCLE('',#359,26.5);
#315=CIRCLE('',#361,27.117867131588);
#316=CIRCLE('',#363,31.4885);
#317=CIRCLE('',#365,31.4885);
#318=CIRCLE('',#367,30.0);
#319=CIRCLE('',#369,30.0);
#320=CIRCLE('',#371,13.5);
#321=CIRCLE('',#373,13.5);
#322=AXIS2_PLACEMENT_3D('',#484,#376,#377);
#323=AXIS2_PLACEMENT_3D('',#485,#378,#379);
#324=AXIS2_PLACEMENT_3D('',#487,#380,#381);
#325=AXIS2_PLACEMENT_3D('',#489,#382,#383);
#326=AXIS2_PLACEMENT_3D('',#490,#384,#385);
#327=AXIS2_PLACEMENT_3D('',#492,#386,#387);
#328=AXIS2_PLACEMENT_3D('',#493,#388,#389);
#329=AXIS2_PLACEMENT_3D('',#495,#390,#391);
#330=AXIS2_PLACEMENT_3D('',#496,#392,#393);
#331=AXIS2_PLACEMENT_3D('',#498,#394,#395);
#332=AXIS2_PLACEMENT_3D('',#499,#396,#397);
#333=AXIS2_PLACEMENT_3D('',#501,#398,#399);
#334=AXIS2_PLACEMENT_3D('',#502,#400,#401);
#335=AXIS2_PLACEMENT_3D('',#504,#402,#403);
#336=AXIS2_PLACEMENT_3D('',#505,#404,#405);
#337=AXIS2_PLACEMENT_3D('',#506,#406,#407);
#338=AXIS2_PLACEMENT_3D('',#508,#408,#409);
#339=AXIS2_PLACEMENT_3D('',#509,#410,#411);
#340=AXIS2_PLACEMENT_3D('',#511,#412,#413);
#341=AXIS2_PLACEMENT_3D('',#512,#414,#415);
#342=AXIS2_PLACEMENT_3D('',#514,#416,#417);
#343=AXIS2_PLACEMENT_3D('',#515,#418,#419);
#344=AXIS2_PLACEMENT_3D('',#517,#420,#421);
#345=AXIS2_PLACEMENT_3D('',#518,#422,#423);
#346=AXIS2_PLACEMENT_3D('',#520,#424,#425);
#347=AXIS2_PLACEMENT_3D('',#521,#426,#427);
#348=AXIS2_PLACEMENT_3D('',#523,#428,#429);
#349=AXIS2_PLACEMENT_3D('',#524,#430,#431);
#350=AXIS2_PLACEMENT_3D('',#526,#432,#433);
#351=AXIS2_PLACEMENT_3D('',#527,#434,#435);
#352=AXIS2_PLACEMENT_3D('',#529,#436,#437);
#353=AXIS2_PLACEMENT_3D('',#530,#438,#439);
#354=AXIS2_PLACEMENT_3D('',#532,#440,#441);
#355=AXIS2_PLACEMENT_3D('',#533,#442,#443);
#356=AXIS2_PLACEMENT_3D('',#535,#444,#445);
#357=AXIS2_PLACEMENT_3D('',#536,#446,#447);
#358=AXIS2_PLACEMENT_3D('',#538,#448,#449);
#359=AXIS2_PLACEMENT_3D('',#539,#450,#451);
#360=AXIS2_PLACEMENT_3D('',#541,#452,#453);
#361=AXIS2_PLACEMENT_3D('',#542,#454,#455);
#362=AXIS2_PLACEMENT_3D('',#544,#456,#457);
#363=AXIS2_PLACEMENT_3D('',#545,#458,#459);
#364=AXIS2_PLACEMENT_3D('',#547,#460,#461);
#365=AXIS2_PLACEMENT_3D('',#548,#462,#463);
#366=AXIS2_PLACEMENT_3D('',#550,#464,#465);
#367=AXIS2_PLACEMENT_3D('',#551,#466,#467);
#368=AXIS2_PLACEMENT_3D('',#553,#468,#469);
#369=AXIS2_PLACEMENT_3D('',#554,#470,#471);
#370=AXIS2_PLACEMENT_3D('',#556,#472,#473);
#371=AXIS2_PLACEMENT_3D('',#557,#474,#475);
#372=AXIS2_PLACEMENT_3D('',#559,#476,#477);
#373=AXIS2_PLACEMENT_3D('',#560,#478,#479);
#374=AXIS2_PLACEMENT_3D('',#562,#480,#481);
#375=AXIS2_PLACEMENT_3D('',#563,#482,#483);
#376=DIRECTION('',(0.0,0.0,1.0));
#377=DIRECTION('',(1.0,0.0,0.0));
#378=DIRECTION('',(0.0,0.0,1.0));
#379=DIRECTION('',(1.0,0.0,0.0));
#380=DIRECTION('',(0.0,0.0,1.0));
#381=DIRECTION('',(1.0,0.0,0.0));
#382=DIRECTION('',(0.0,0.0,1.0));
#383=DIRECTION('',(1.0,0.0,0.0));
#384=DIRECTION('',(0.0,0.0,1.0));
#385=DIRECTION('',(1.0,0.0,0.0));
#386=DIRECTION('',(0.0,0.0,1.0));
#387=DIRECTION('',(1.0,0.0,0.0));
#388=DIRECTION('',(0.0,0.0,1.0));
#389=DIRECTION('',(1.0,0.0,0.0));
#390=DIRECTION('',(0.0,0.0,1.0));
#391=DIRECTION('',(1.0,0.0,0.0));
#392=DIRECTION('',(0.0,0.0,1.0));
#393=DIRECTION('',(1.0,0.0,0.0));
#394=DIRECTION('',(0.0,0.0,-1.0));
#395=DIRECTION('',(-1.0,0.0,0.0));
#396=DIRECTION('',(0.0,0.0,1.0));
#397=DIRECTION('',(1.0,0.0,0.0));
#398=DIRECTION('',(0.0,0.0,1.0));
#399=DIRECTION('',(1.0,0.0,0.0));
#400=DIRECTION('',(0.0,0.0,1.0));
#401=DIRECTION('',(1.0,0.0,0.0));
#402=DIRECTION('',(0.0,0.0,1.0));
#403=DIRECTION('',(1.0,0.0,0.0));
#404=DIRECTION('',(0.0,0.0,-1.0));
#405=DIRECTION('',(-1.0,0.0,0.0));
#406=DIRECTION('',(0.0,0.0,1.0));
#407=DIRECTION('',(1.0,0.0,0.0));
#408=DIRECTION('',(0.0,0.0,1.0));
#409=DIRECTION('',(1.0,0.0,0.0));
#410=DIRECTION('',(0.0,0.0,1.0));
#411=DIRECTION('',(1.0,0.0,0.0));
#412=DIRECTION('',(0.0,0.0,-1.0));
#413=DIRECTION('',(-1.0,0.0,-8.75448235597252E-17));
#414=DIRECTION('',(0.0,0.0,1.0));
#415=DIRECTION('',(1.0,0.0,0.0));
#416=DIRECTION('',(0.0,0.0,1.0));
#417=DIRECTION('',(1.0,0.0,0.0));
#418=DIRECTION('',(0.0,0.0,1.0));
#419=DIRECTION('',(1.0,0.0,0.0));
#420=DIRECTION('',(0.0,0.0,1.0));
#421=DIRECTION('',(1.0,0.0,0.0));
#422=DIRECTION('',(0.0,0.0,1.0));
#423=DIRECTION('',(1.0,0.0,0.0));
#424=DIRECTION('',(0.0,0.0,1.0));
#425=DIRECTION('',(1.0,0.0,0.0));
#426=DIRECTION('',(0.0,0.0,1.0));
#427=DIRECTION('',(1.0,0.0,0.0));
#428=DIRECTION('',(0.0,0.0,1.0));
#429=DIRECTION('',(1.0,0.0,0.0));
#430=DIRECTION('',(0.0,0.0,1.0));
#431=DIRECTION('',(1.0,0.0,0.0));
#432=DIRECTION('',(0.0,0.0,1.0));
#433=DIRECTION('',(1.0,0.0,6.00421148123539E-18));
#434=DIRECTION('',(0.0,0.0,1.0));
#435=DIRECTION('',(1.0,0.0,0.0));
#436=DIRECTION('',(0.0,0.0,1.0));
#437=DIRECTION('',(1.0,0.0,0.0));
#438=DIRECTION('',(0.0,0.0,1.0));
#439=DIRECTION('',(1.0,0.0,0.0));
#440=DIRECTION('',(0.0,0.0,1.0));
#441=DIRECTION('',(1.0,0.0,0.0));
#442=DIRECTION('',(0.0,0.0,1.0));
#443=DIRECTION('',(1.0,0.0,0.0));
#444=DIRECTION('',(0.0,0.0,1.0));
#445=DIRECTION('',(1.0,0.0,1.85971694204169E-17));
#446=DIRECTION('',(0.0,0.0,1.0));
#447=DIRECTION('',(1.0,0.0,0.0));
#448=DIRECTION('',(0.0,0.0,-1.0));
#449=DIRECTION('',(-1.0,0.0,0.0));
#450=DIRECTION('',(0.0,0.0,1.0));
#451=DIRECTION('',(1.0,0.0,0.0));
#452=DIRECTION('',(0.0,0.0,1.0));
#453=DIRECTION('',(1.0,0.0,0.0));
#454=DIRECTION('',(0.0,0.0,1.0));
#455=DIRECTION('',(1.0,0.0,0.0));
#456=DIRECTION('',(0.0,0.0,1.0));
#457=DIRECTION('',(1.0,0.0,0.0));
#458=DIRECTION('',(0.0,0.0,1.0));
#459=DIRECTION('',(1.0,0.0,0.0));
#460=DIRECTION('',(0.0,0.0,-1.0));
#461=DIRECTION('',(-1.0,0.0,6.08355255410927E-17));
#462=DIRECTION('',(0.0,0.0,1.0));
#463=DIRECTION('',(1.0,0.0,0.0));
#464=DIRECTION('',(0.0,0.0,1.0));
#465=DIRECTION('',(1.0,0.0,0.0));
#466=DIRECTION('',(0.0,0.0,1.0));
#467=DIRECTION('',(1.0,0.0,0.0));
#468=DIRECTION('',(0.0,0.0,-1.0));
#469=DIRECTION('',(-1.0,0.0,0.0));
#470=DIRECTION('',(0.0,0.0,1.0));
#471=DIRECTION('',(1.0,0.0,0.0));
#472=DIRECTION('',(0.0,0.0,1.0));
#473=DIRECTION('',(1.0,0.0,0.0));
#474=DIRECTION('',(0.0,0.0,1.0));
#475=DIRECTION('',(1.0,0.0,0.0));
#476=DIRECTION('',(0.0,0.0,-1.0));
#477=DIRECTION('',(-1.0,0.0,0.0));
#478=DIRECTION('',(0.0,0.0,1.0));
#479=DIRECTION('',(1.0,0.0,0.0));
#480=DIRECTION('',(0.0,0.0,1.0));
#481=DIRECTION('',(1.0,0.0,0.0));
#482=DIRECTION('',(0.0,0.0,-1.0));
#483=DIRECTION('',(-1.0,0.0,0.0));
#484=CARTESIAN_POINT('',(0.0,0.0,0.0));
#485=CARTESIAN_POINT('',(0.0,0.0,-68.0));
#486=CARTESIAN_POINT('',(6.0,0.0,-68.0));
#487=CARTESIAN_POINT('',(0.0,0.0,-63.0));
#488=CARTESIAN_POINT('',(6.0,0.0,-63.0));
#489=CARTESIAN_POINT('',(0.0,0.0,0.0));
#490=CARTESIAN_POINT('',(0.0,0.0,-68.0));
#491=CARTESIAN_POINT('',(17.0,0.0,-68.0));
#492=CARTESIAN_POINT('',(0.0,6.0,-68.0));
#493=CARTESIAN_POINT('',(0.0,0.0,-73.0));
#494=CARTESIAN_POINT('',(17.0,0.0,-73.0));
#495=CARTESIAN_POINT('',(0.0,0.0,0.0));
#496=CARTESIAN_POINT('',(0.0,0.0,-73.0));
#497=CARTESIAN_POINT('',(9.0,0.0,-73.0));
#498=CARTESIAN_POINT('',(0.0,17.0,-73.0));
#499=CARTESIAN_POINT('',(0.0,0.0,-80.0));
#500=CARTESIAN_POINT('',(9.0,0.0,-80.0));
#501=CARTESIAN_POINT('',(0.0,0.0,0.0));
#502=CARTESIAN_POINT('',(0.0,0.0,-81.0));
#503=CARTESIAN_POINT('',(8.0,0.0,-81.0));
#504=CARTESIAN_POINT('',(0.0,0.0,-80.0));
#505=CARTESIAN_POINT('',(0.0,8.0,-81.0));
#506=CARTESIAN_POINT('',(0.0,0.0,65.4));
#507=CARTESIAN_POINT('',(12.6874125357568,0.0,65.4));
#508=CARTESIAN_POINT('',(0.0,8.50675,65.4));
#509=CARTESIAN_POINT('',(0.0,0.0,0.0));
#510=CARTESIAN_POINT('',(22.225,0.0,0.0));
#511=CARTESIAN_POINT('',(0.0,0.0,65.4));
#512=CARTESIAN_POINT('',(0.0,0.0,-0.428444402022637));
#513=CARTESIAN_POINT('',(21.925,0.0,-0.428444402022637));
#514=CARTESIAN_POINT('',(0.0,0.0,0.0));
#515=CARTESIAN_POINT('',(0.0,0.0,-0.799999999999988));
#516=CARTESIAN_POINT('',(21.925,0.0,-0.799999999999988));
#517=CARTESIAN_POINT('',(0.0,0.0,0.0));
#518=CARTESIAN_POINT('',(0.0,0.0,-1.29999999999999));
#519=CARTESIAN_POINT('',(22.425,0.0,-1.29999999999999));
#520=CARTESIAN_POINT('',(0.0,0.0,-0.799999999999988));
#521=CARTESIAN_POINT('',(0.0,0.0,-1.29999999999999));
#522=CARTESIAN_POINT('',(23.8803847577293,0.0,-1.29999999999999));
#523=CARTESIAN_POINT('',(0.0,22.425,-1.29999999999999));
#524=CARTESIAN_POINT('',(0.0,0.0,-0.999999999999995));
#525=CARTESIAN_POINT('',(25.0,0.0,-0.999999999999995));
#526=CARTESIAN_POINT('',(0.0,0.0,-1.29999999999999));
#527=CARTESIAN_POINT('',(0.0,0.0,-1.0));
#528=CARTESIAN_POINT('',(31.4885,0.0,-1.0));
#529=CARTESIAN_POINT('',(0.0,25.0,-0.999999999999997));
#530=CARTESIAN_POINT('',(0.0,0.0,-11.589311618914));
#531=CARTESIAN_POINT('',(31.4885,0.0,-11.589311618914));
#532=CARTESIAN_POINT('',(0.0,0.0,0.0));
#533=CARTESIAN_POINT('',(0.0,0.0,-14.1));
#534=CARTESIAN_POINT('',(27.117867131588,0.0,-14.1));
#535=CARTESIAN_POINT('',(0.0,0.0,-11.589311618914));
#536=CARTESIAN_POINT('',(0.0,0.0,-14.1));
#537=CARTESIAN_POINT('',(26.5,0.0,-14.1));
#538=CARTESIAN_POINT('',(0.0,27.117867131588,-14.1));
#539=CARTESIAN_POINT('',(0.0,0.0,-19.1));
#540=CARTESIAN_POINT('',(26.5,0.0,-19.1));
#541=CARTESIAN_POINT('',(0.0,0.0,0.0));
#542=CARTESIAN_POINT('',(0.0,0.0,-19.1));
#543=CARTESIAN_POINT('',(27.117867131588,0.0,-19.1));
#544=CARTESIAN_POINT('',(0.0,26.5,-19.1));
#545=CARTESIAN_POINT('',(0.0,0.0,-21.610688381086));
#546=CARTESIAN_POINT('',(31.4885,0.0,-21.610688381086));
#547=CARTESIAN_POINT('',(0.0,0.0,-19.1));
#548=CARTESIAN_POINT('',(0.0,0.0,-27.0));
#549=CARTESIAN_POINT('',(31.4885,0.0,-27.0));
#550=CARTESIAN_POINT('',(0.0,0.0,0.0));
#551=CARTESIAN_POINT('',(0.0,0.0,-27.0));
#552=CARTESIAN_POINT('',(30.0,0.0,-27.0));
#553=CARTESIAN_POINT('',(0.0,31.4885,-27.0));
#554=CARTESIAN_POINT('',(0.0,0.0,-45.0));
#555=CARTESIAN_POINT('',(30.0,0.0,-45.0));
#556=CARTESIAN_POINT('',(0.0,0.0,0.0));
#557=CARTESIAN_POINT('',(0.0,0.0,-45.0));
#558=CARTESIAN_POINT('',(13.5,0.0,-45.0));
#559=CARTESIAN_POINT('',(0.0,30.0,-45.0));
#560=CARTESIAN_POINT('',(0.0,0.0,-63.0));
#561=CARTESIAN_POINT('',(13.5,0.0,-63.0));
#562=CARTESIAN_POINT('',(0.0,0.0,0.0));
#563=CARTESIAN_POINT('',(0.0,13.5,-63.0));
#564=MECHANICAL_DESIGN_GEOMETRIC_PRESENTATION_REPRESENTATION('',(#24),#565);
#565=(GEOMETRIC_REPRESENTATION_CONTEXT(3)GLOBAL_UNCERTAINTY_ASSIGNED_CONTEXT((#566))
     GLOBAL_UNIT_ASSIGNED_CONTEXT((#572,#568,#567))REPRESENTATION_CONTEXT('392','TOP_LEVEL_ASSEMBLY_PART'));
#566=UNCERTAINTY_MEASURE_WITH_UNIT(LENGTH_MEASURE(2.0E-5),#572,'DISTANCE_ACCURACY_VALUE',
     'Maximum Tolerance applied to model');
#567=(NAMED_UNIT(*)SI_UNIT($,.STERADIAN.)SOLID_ANGLE_UNIT());
#568=(CONVERSION_BASED_UNIT('DEGREE',#570)NAMED_UNIT(*)PLANE_ANGLE_UNIT());
#569=DIMENSIONAL_EXPONENTS(0.0,0.0,0.0,0.0,0.0,0.0,0.0);
#570=PLANE_ANGLE_MEASURE_WITH_UNIT(PLANE_ANGLE_MEASURE(0.0174532925),#571);
#571=(NAMED_UNIT(*)PLANE_ANGLE_UNIT()SI_UNIT($,.RADIAN.));
#572=(LENGTH_UNIT()NAMED_UNIT(*)SI_UNIT(.MILLI.,.METRE.));
#573=CARTESIAN_POINT('',(0.0,0.0,0.0));
#574=DIRECTION('',(0.0,0.0,1.0));
#575=DIRECTION('',(1.0,0.0,0.0));
#576=AXIS2_PLACEMENT_3D('PCS',#573,#574,#575);
#577=CARTESIAN_POINT('',(0.0,0.0,0.0));
#578=DIRECTION('',(0.0,0.0,1.0));
#579=DIRECTION('',(1.0,0.0,0.0));
#580=AXIS2_PLACEMENT_3D('MCS',#577,#578,#579);
#581=CARTESIAN_POINT('',(0.0,0.0,-45.0));
#582=DIRECTION('',(0.0,0.0,1.0));
#583=DIRECTION('',(1.0,0.0,0.0));
#584=AXIS2_PLACEMENT_3D('CSW',#581,#582,#583);
#585=CONSTRUCTIVE_GEOMETRY_REPRESENTATION('supplemental geometry',(#576,#580,#584),
     #565);
#586=CONSTRUCTIVE_GEOMETRY_REPRESENTATION_RELATIONSHIP('supplemental geometry',$,
     #22,#585);
ENDSEC;
END-ISO-10303-21;
