ISO-10303-21;
HEADER;
FILE_DESCRIPTION(
/* description */ ('3-D model version:1'),
/* implementation_level */ '2;1');
FILE_NAME(
/* name */ '392.410EH-10020100',
/* time_stamp */ '2016-12-02T13:57:17',
/* author */ ('InteractiveCad'),
/* organization */ ('AB Sandvik Coromant'),
/* preprocessor_version */ 'ST-DEVELOPER v11',
/* originating_system */ 'SIEMENS UGS NX 6.0',
/* authorization */ '');
FILE_SCHEMA(('AUTOMOTIVE_DESIGN'));
ENDSEC;
DATA;
#10=SHAPE_REPRESENTATION_RELATIONSHIP('None','relationship between ds680C826com-None and ds680C826com-None',
     #22,#11);
#11=ADVANCED_BREP_SHAPE_REPRESENTATION('ds680C826com-None',(#32),#345);
#12=SHAPE_DEFINITION_REPRESENTATION(#13,#22);
#13=PRODUCT_DEFINITION_SHAPE('','',#14);
#14=PRODUCT_DEFINITION(' ','',#16,#15);
#15=PRODUCT_DEFINITION_CONTEXT('part definition',#21,'design');
#16=PRODUCT_DEFINITION_FORMATION_WITH_SPECIFIED_SOURCE(' ',' ',#18,.NOT_KNOWN.);
#17=PRODUCT_RELATED_PRODUCT_CATEGORY('part','',(#18));
#18=PRODUCT('ds680C826com','ds680C826com',' ',(#19));
#19=PRODUCT_CONTEXT(' ',#21,'mechanical');
#20=APPLICATION_PROTOCOL_DEFINITION('international standard','automotive_design',
     2001,#21);
#21=APPLICATION_CONTEXT('core data for automotive mechanical design processes');
#22=SHAPE_REPRESENTATION('ds680C826com-None',(#201),#345);
#23=PRESENTATION_LAYER_ASSIGNMENT('1','Layer 1',(#32));
#24=STYLED_ITEM('',(#25),#32);
#25=PRESENTATION_STYLE_ASSIGNMENT((#26));
#26=SURFACE_STYLE_USAGE(.BOTH.,#27);
#27=SURFACE_SIDE_STYLE('',(#28));
#28=SURFACE_STYLE_FILL_AREA(#29);
#29=FILL_AREA_STYLE('',(#30));
#30=FILL_AREA_STYLE_COLOUR('',#31);
#31=COLOUR_RGB('Medium Gray',0.490196078431373,0.490196078431373,0.490196078431373);
#32=MANIFOLD_SOLID_BREP('NOCUT',#33);
#33=CLOSED_SHELL('',(#48,#49,#50,#51,#52,#53,#54,#55,#56,#57,#58,#59,#60,#61,#62,
     #63));
#34=TOROIDAL_SURFACE('',#217,20.2206618590606,5.0);
#35=FACE_OUTER_BOUND('',#102,.T.);
#36=FACE_OUTER_BOUND('',#103,.T.);
#37=CONICAL_SURFACE('',#208,38.007502004008,2.86813194068658);
#38=CONICAL_SURFACE('',#215,9.6,8.00130666339091);
#39=CONICAL_SURFACE('',#219,18.9267206371983,75.0018269977372);
#40=CONICAL_SURFACE('',#225,49.965,59.9999999999988);
#41=CONICAL_SURFACE('',#232,47.6625471694755,59.9999999999983);
#42=PLANE('',#206);
#43=PLANE('',#209);
#44=PLANE('',#211);
#45=PLANE('',#221);
#46=PLANE('',#227);
#47=PLANE('',#231);
#48=ADVANCED_FACE('',(#68,#69),#64,.T.);
#49=ADVANCED_FACE('',(#70,#71),#42,.F.);
#50=ADVANCED_FACE('',(#72,#73),#37,.T.);
#51=ADVANCED_FACE('',(#35),#43,.F.);
#52=ADVANCED_FACE('',(#36),#44,.F.);
#53=ADVANCED_FACE('',(#74,#75),#65,.T.);
#54=ADVANCED_FACE('',(#76,#77),#38,.T.);
#55=ADVANCED_FACE('',(#78,#79),#34,.F.);
#56=ADVANCED_FACE('',(#80,#81),#39,.T.);
#57=ADVANCED_FACE('',(#82,#83),#45,.F.);
#58=ADVANCED_FACE('',(#84,#85),#66,.T.);
#59=ADVANCED_FACE('',(#86,#87),#40,.T.);
#60=ADVANCED_FACE('',(#88,#89),#46,.F.);
#61=ADVANCED_FACE('',(#90,#91),#67,.T.);
#62=ADVANCED_FACE('',(#92,#93),#47,.F.);
#63=ADVANCED_FACE('',(#94,#95),#41,.T.);
#64=CYLINDRICAL_SURFACE('',#204,49.9649999999999);
#65=CYLINDRICAL_SURFACE('',#213,9.6);
#66=CYLINDRICAL_SURFACE('',#223,49.965);
#67=CYLINDRICAL_SURFACE('',#229,45.975);
#68=FACE_BOUND('',#96,.T.);
#69=FACE_BOUND('',#97,.T.);
#70=FACE_BOUND('',#98,.T.);
#71=FACE_BOUND('',#99,.T.);
#72=FACE_BOUND('',#100,.T.);
#73=FACE_BOUND('',#101,.T.);
#74=FACE_BOUND('',#104,.T.);
#75=FACE_BOUND('',#105,.T.);
#76=FACE_BOUND('',#106,.T.);
#77=FACE_BOUND('',#107,.T.);
#78=FACE_BOUND('',#108,.T.);
#79=FACE_BOUND('',#109,.T.);
#80=FACE_BOUND('',#110,.T.);
#81=FACE_BOUND('',#111,.T.);
#82=FACE_BOUND('',#112,.T.);
#83=FACE_BOUND('',#113,.T.);
#84=FACE_BOUND('',#114,.T.);
#85=FACE_BOUND('',#115,.T.);
#86=FACE_BOUND('',#116,.T.);
#87=FACE_BOUND('',#117,.T.);
#88=FACE_BOUND('',#118,.T.);
#89=FACE_BOUND('',#119,.T.);
#90=FACE_BOUND('',#120,.T.);
#91=FACE_BOUND('',#121,.T.);
#92=FACE_BOUND('',#122,.T.);
#93=FACE_BOUND('',#123,.T.);
#94=FACE_BOUND('',#124,.T.);
#95=FACE_BOUND('',#125,.T.);
#96=EDGE_LOOP('',(#126));
#97=EDGE_LOOP('',(#127));
#98=EDGE_LOOP('',(#128));
#99=EDGE_LOOP('',(#129));
#100=EDGE_LOOP('',(#130));
#101=EDGE_LOOP('',(#131));
#102=EDGE_LOOP('',(#132));
#103=EDGE_LOOP('',(#133));
#104=EDGE_LOOP('',(#134));
#105=EDGE_LOOP('',(#135));
#106=EDGE_LOOP('',(#136));
#107=EDGE_LOOP('',(#137));
#108=EDGE_LOOP('',(#138));
#109=EDGE_LOOP('',(#139));
#110=EDGE_LOOP('',(#140));
#111=EDGE_LOOP('',(#141));
#112=EDGE_LOOP('',(#142));
#113=EDGE_LOOP('',(#143));
#114=EDGE_LOOP('',(#144));
#115=EDGE_LOOP('',(#145));
#116=EDGE_LOOP('',(#146));
#117=EDGE_LOOP('',(#147));
#118=EDGE_LOOP('',(#148));
#119=EDGE_LOOP('',(#149));
#120=EDGE_LOOP('',(#150));
#121=EDGE_LOOP('',(#151));
#122=EDGE_LOOP('',(#152));
#123=EDGE_LOOP('',(#153));
#124=EDGE_LOOP('',(#154));
#125=EDGE_LOOP('',(#155));
#126=ORIENTED_EDGE('',*,*,#171,.F.);
#127=ORIENTED_EDGE('',*,*,#172,.T.);
#128=ORIENTED_EDGE('',*,*,#173,.F.);
#129=ORIENTED_EDGE('',*,*,#171,.T.);
#130=ORIENTED_EDGE('',*,*,#174,.F.);
#131=ORIENTED_EDGE('',*,*,#173,.T.);
#132=ORIENTED_EDGE('',*,*,#174,.T.);
#133=ORIENTED_EDGE('',*,*,#175,.F.);
#134=ORIENTED_EDGE('',*,*,#176,.F.);
#135=ORIENTED_EDGE('',*,*,#175,.T.);
#136=ORIENTED_EDGE('',*,*,#177,.F.);
#137=ORIENTED_EDGE('',*,*,#176,.T.);
#138=ORIENTED_EDGE('',*,*,#178,.F.);
#139=ORIENTED_EDGE('',*,*,#177,.T.);
#140=ORIENTED_EDGE('',*,*,#179,.F.);
#141=ORIENTED_EDGE('',*,*,#178,.T.);
#142=ORIENTED_EDGE('',*,*,#180,.F.);
#143=ORIENTED_EDGE('',*,*,#179,.T.);
#144=ORIENTED_EDGE('',*,*,#181,.F.);
#145=ORIENTED_EDGE('',*,*,#180,.T.);
#146=ORIENTED_EDGE('',*,*,#182,.F.);
#147=ORIENTED_EDGE('',*,*,#181,.T.);
#148=ORIENTED_EDGE('',*,*,#183,.F.);
#149=ORIENTED_EDGE('',*,*,#182,.T.);
#150=ORIENTED_EDGE('',*,*,#184,.F.);
#151=ORIENTED_EDGE('',*,*,#183,.T.);
#152=ORIENTED_EDGE('',*,*,#185,.F.);
#153=ORIENTED_EDGE('',*,*,#184,.T.);
#154=ORIENTED_EDGE('',*,*,#172,.F.);
#155=ORIENTED_EDGE('',*,*,#185,.T.);
#156=VERTEX_POINT('',#299);
#157=VERTEX_POINT('',#301);
#158=VERTEX_POINT('',#304);
#159=VERTEX_POINT('',#307);
#160=VERTEX_POINT('',#311);
#161=VERTEX_POINT('',#314);
#162=VERTEX_POINT('',#317);
#163=VERTEX_POINT('',#320);
#164=VERTEX_POINT('',#323);
#165=VERTEX_POINT('',#326);
#166=VERTEX_POINT('',#329);
#167=VERTEX_POINT('',#332);
#168=VERTEX_POINT('',#335);
#169=VERTEX_POINT('',#338);
#170=VERTEX_POINT('',#341);
#171=EDGE_CURVE('',#156,#156,#186,.T.);
#172=EDGE_CURVE('',#157,#157,#187,.T.);
#173=EDGE_CURVE('',#158,#158,#188,.T.);
#174=EDGE_CURVE('',#159,#159,#189,.T.);
#175=EDGE_CURVE('',#160,#160,#190,.T.);
#176=EDGE_CURVE('',#161,#161,#191,.T.);
#177=EDGE_CURVE('',#162,#162,#192,.T.);
#178=EDGE_CURVE('',#163,#163,#193,.T.);
#179=EDGE_CURVE('',#164,#164,#194,.T.);
#180=EDGE_CURVE('',#165,#165,#195,.T.);
#181=EDGE_CURVE('',#166,#166,#196,.T.);
#182=EDGE_CURVE('',#167,#167,#197,.T.);
#183=EDGE_CURVE('',#168,#168,#198,.T.);
#184=EDGE_CURVE('',#169,#169,#199,.T.);
#185=EDGE_CURVE('',#170,#170,#200,.T.);
#186=CIRCLE('',#202,49.965);
#187=CIRCLE('',#203,49.9649999999998);
#188=CIRCLE('',#205,38.007502004008);
#189=CIRCLE('',#207,35.5075020040081);
#190=CIRCLE('',#210,9.6);
#191=CIRCLE('',#212,9.6);
#192=CIRCLE('',#214,15.2693373862557);
#193=CIRCLE('',#216,18.9267206371983);
#194=CIRCLE('',#218,43.5000000000001);
#195=CIRCLE('',#220,49.965);
#196=CIRCLE('',#222,49.965);
#197=CIRCLE('',#224,47.6625471694755);
#198=CIRCLE('',#226,45.975);
#199=CIRCLE('',#228,45.975);
#200=CIRCLE('',#230,47.6625471694755);
#201=AXIS2_PLACEMENT_3D('',#297,#233,#234);
#202=AXIS2_PLACEMENT_3D('',#298,#235,#236);
#203=AXIS2_PLACEMENT_3D('',#300,#237,#238);
#204=AXIS2_PLACEMENT_3D('',#302,#239,#240);
#205=AXIS2_PLACEMENT_3D('',#303,#241,#242);
#206=AXIS2_PLACEMENT_3D('',#305,#243,#244);
#207=AXIS2_PLACEMENT_3D('',#306,#245,#246);
#208=AXIS2_PLACEMENT_3D('',#308,#247,#248);
#209=AXIS2_PLACEMENT_3D('',#309,#249,#250);
#210=AXIS2_PLACEMENT_3D('',#310,#251,#252);
#211=AXIS2_PLACEMENT_3D('',#312,#253,#254);
#212=AXIS2_PLACEMENT_3D('',#313,#255,#256);
#213=AXIS2_PLACEMENT_3D('',#315,#257,#258);
#214=AXIS2_PLACEMENT_3D('',#316,#259,#260);
#215=AXIS2_PLACEMENT_3D('',#318,#261,#262);
#216=AXIS2_PLACEMENT_3D('',#319,#263,#264);
#217=AXIS2_PLACEMENT_3D('',#321,#265,#266);
#218=AXIS2_PLACEMENT_3D('',#322,#267,#268);
#219=AXIS2_PLACEMENT_3D('',#324,#269,#270);
#220=AXIS2_PLACEMENT_3D('',#325,#271,#272);
#221=AXIS2_PLACEMENT_3D('',#327,#273,#274);
#222=AXIS2_PLACEMENT_3D('',#328,#275,#276);
#223=AXIS2_PLACEMENT_3D('',#330,#277,#278);
#224=AXIS2_PLACEMENT_3D('',#331,#279,#280);
#225=AXIS2_PLACEMENT_3D('',#333,#281,#282);
#226=AXIS2_PLACEMENT_3D('',#334,#283,#284);
#227=AXIS2_PLACEMENT_3D('',#336,#285,#286);
#228=AXIS2_PLACEMENT_3D('',#337,#287,#288);
#229=AXIS2_PLACEMENT_3D('',#339,#289,#290);
#230=AXIS2_PLACEMENT_3D('',#340,#291,#292);
#231=AXIS2_PLACEMENT_3D('',#342,#293,#294);
#232=AXIS2_PLACEMENT_3D('',#343,#295,#296);
#233=DIRECTION('',(0.0,0.0,1.0));
#234=DIRECTION('',(1.0,0.0,0.0));
#235=DIRECTION('',(0.0,0.0,1.0));
#236=DIRECTION('',(1.0,0.0,0.0));
#237=DIRECTION('',(0.0,0.0,1.0));
#238=DIRECTION('',(1.0,0.0,0.0));
#239=DIRECTION('',(0.0,0.0,1.0));
#240=DIRECTION('',(1.0,0.0,0.0));
#241=DIRECTION('',(0.0,0.0,1.0));
#242=DIRECTION('',(1.0,0.0,0.0));
#243=DIRECTION('',(0.0,0.0,-1.0));
#244=DIRECTION('',(-1.0,0.0,0.0));
#245=DIRECTION('',(0.0,0.0,1.0));
#246=DIRECTION('',(1.0,0.0,0.0));
#247=DIRECTION('',(0.0,0.0,-1.0));
#248=DIRECTION('',(-1.0,0.0,0.0));
#249=DIRECTION('',(0.0,0.0,-1.0));
#250=DIRECTION('',(-1.0,0.0,0.0));
#251=DIRECTION('',(0.0,0.0,1.0));
#252=DIRECTION('',(1.0,0.0,0.0));
#253=DIRECTION('',(0.0,0.0,1.0));
#254=DIRECTION('',(1.0,0.0,0.0));
#255=DIRECTION('',(0.0,0.0,1.0));
#256=DIRECTION('',(1.0,0.0,0.0));
#257=DIRECTION('',(0.0,0.0,1.0));
#258=DIRECTION('',(1.0,0.0,0.0));
#259=DIRECTION('',(0.0,0.0,1.0));
#260=DIRECTION('',(1.0,0.0,0.0));
#261=DIRECTION('',(0.0,0.0,1.0));
#262=DIRECTION('',(1.0,0.0,2.77252458962017E-16));
#263=DIRECTION('',(0.0,0.0,1.0));
#264=DIRECTION('',(1.0,0.0,0.0));
#265=DIRECTION('',(0.0,0.0,1.0));
#266=DIRECTION('',(1.0,0.0,0.0));
#267=DIRECTION('',(0.0,0.0,1.0));
#268=DIRECTION('',(1.0,0.0,0.0));
#269=DIRECTION('',(0.0,0.0,1.0));
#270=DIRECTION('',(1.0,0.0,0.0));
#271=DIRECTION('',(0.0,0.0,1.0));
#272=DIRECTION('',(1.0,0.0,0.0));
#273=DIRECTION('',(0.0,0.0,1.0));
#274=DIRECTION('',(1.0,0.0,0.0));
#275=DIRECTION('',(0.0,0.0,1.0));
#276=DIRECTION('',(1.0,0.0,0.0));
#277=DIRECTION('',(0.0,0.0,1.0));
#278=DIRECTION('',(1.0,0.0,0.0));
#279=DIRECTION('',(0.0,0.0,1.0));
#280=DIRECTION('',(1.0,0.0,0.0));
#281=DIRECTION('',(0.0,0.0,-1.0));
#282=DIRECTION('',(-1.0,0.0,0.0));
#283=DIRECTION('',(0.0,0.0,1.0));
#284=DIRECTION('',(1.0,0.0,0.0));
#285=DIRECTION('',(0.0,0.0,-1.0));
#286=DIRECTION('',(-1.0,0.0,0.0));
#287=DIRECTION('',(0.0,0.0,1.0));
#288=DIRECTION('',(1.0,0.0,0.0));
#289=DIRECTION('',(0.0,0.0,1.0));
#290=DIRECTION('',(1.0,0.0,0.0));
#291=DIRECTION('',(0.0,0.0,1.0));
#292=DIRECTION('',(1.0,0.0,0.0));
#293=DIRECTION('',(0.0,0.0,1.0));
#294=DIRECTION('',(1.0,0.0,0.0));
#295=DIRECTION('',(0.0,0.0,1.0));
#296=DIRECTION('',(1.0,0.0,-1.55955314611388E-17));
#297=CARTESIAN_POINT('',(0.0,0.0,0.0));
#298=CARTESIAN_POINT('',(0.0,3.5527136788005E-15,0.0));
#299=CARTESIAN_POINT('',(49.965,3.5527136788005E-15,0.0));
#300=CARTESIAN_POINT('',(0.0,3.5527136788005E-15,-16.7581782385003));
#301=CARTESIAN_POINT('',(49.9649999999998,3.5527136788005E-15,-16.7581782385003));
#302=CARTESIAN_POINT('',(0.0,3.5527136788005E-15,-100.0));
#303=CARTESIAN_POINT('',(0.0,3.5527136788005E-15,0.0));
#304=CARTESIAN_POINT('',(38.007502004008,3.5527136788005E-15,0.0));
#305=CARTESIAN_POINT('',(0.0,49.965,8.88178419700125E-16));
#306=CARTESIAN_POINT('',(0.0,3.5527136788005E-15,49.8999999999999));
#307=CARTESIAN_POINT('',(35.5075020040081,3.5527136788005E-15,49.8999999999999));
#308=CARTESIAN_POINT('',(0.0,3.5527136788005E-15,0.0));
#309=CARTESIAN_POINT('',(0.0,26.53,49.9));
#310=CARTESIAN_POINT('',(0.0,3.5527136788005E-15,-100.0));
#311=CARTESIAN_POINT('',(9.6,3.5527136788005E-15,-100.0));
#312=CARTESIAN_POINT('',(0.0,3.5527136788005E-15,-100.0));
#313=CARTESIAN_POINT('',(0.0,3.5527136788005E-15,-80.0));
#314=CARTESIAN_POINT('',(9.6,3.5527136788005E-15,-80.0));
#315=CARTESIAN_POINT('',(0.0,3.5527136788005E-15,-100.0));
#316=CARTESIAN_POINT('',(0.0,3.5527136788005E-15,-39.6672425098513));
#317=CARTESIAN_POINT('',(15.2693373862557,3.5527136788005E-15,-39.6672425098513));
#318=CARTESIAN_POINT('',(0.0,3.5527136788005E-15,-80.0));
#319=CARTESIAN_POINT('',(0.0,3.5527136788005E-15,-35.5335505386837));
#320=CARTESIAN_POINT('',(18.9267206371983,3.5527136788005E-15,-35.5335505386837));
#321=CARTESIAN_POINT('',(0.0,3.46944695195361E-15,-40.3632209326511));
#322=CARTESIAN_POINT('',(0.0,3.5527136788005E-15,-28.95));
#323=CARTESIAN_POINT('',(43.5000000000001,3.5527136788005E-15,-28.95));
#324=CARTESIAN_POINT('',(0.0,3.5527136788005E-15,-35.5335505386837));
#325=CARTESIAN_POINT('',(0.0,3.5527136788005E-15,-28.95));
#326=CARTESIAN_POINT('',(49.965,3.5527136788005E-15,-28.95));
#327=CARTESIAN_POINT('',(0.0,43.5000000000001,-28.95));
#328=CARTESIAN_POINT('',(0.0,3.5527136788005E-15,-23.2418217614998));
#329=CARTESIAN_POINT('',(49.965,3.5527136788005E-15,-23.2418217614998));
#330=CARTESIAN_POINT('',(0.0,3.5527136788005E-15,-100.0));
#331=CARTESIAN_POINT('',(0.0,3.5527136788005E-15,-21.9125));
#332=CARTESIAN_POINT('',(47.6625471694755,3.5527136788005E-15,-21.9125));
#333=CARTESIAN_POINT('',(0.0,3.5527136788005E-15,-23.2418217614998));
#334=CARTESIAN_POINT('',(0.0,3.5527136788005E-15,-21.9125));
#335=CARTESIAN_POINT('',(45.975,3.5527136788005E-15,-21.9125));
#336=CARTESIAN_POINT('',(0.0,47.6625471694755,-21.9125));
#337=CARTESIAN_POINT('',(0.0,3.5527136788005E-15,-18.0875));
#338=CARTESIAN_POINT('',(45.975,3.5527136788005E-15,-18.0875));
#339=CARTESIAN_POINT('',(0.0,3.5527136788005E-15,-100.0));
#340=CARTESIAN_POINT('',(0.0,3.5527136788005E-15,-18.0875));
#341=CARTESIAN_POINT('',(47.6625471694755,3.5527136788005E-15,-18.0875));
#342=CARTESIAN_POINT('',(0.0,45.975,-18.0875));
#343=CARTESIAN_POINT('',(0.0,3.5527136788005E-15,-18.0875));
#344=MECHANICAL_DESIGN_GEOMETRIC_PRESENTATION_REPRESENTATION('',(#24),#345);
#345=(GEOMETRIC_REPRESENTATION_CONTEXT(3)GLOBAL_UNCERTAINTY_ASSIGNED_CONTEXT((#346))
     GLOBAL_UNIT_ASSIGNED_CONTEXT((#352,#348,#347))REPRESENTATION_CONTEXT('392','TOP_LEVEL_ASSEMBLY_PART'));
#346=UNCERTAINTY_MEASURE_WITH_UNIT(LENGTH_MEASURE(2.0E-5),#352,'DISTANCE_ACCURACY_VALUE',
     'Maximum Tolerance applied to model');
#347=(NAMED_UNIT(*)SI_UNIT($,.STERADIAN.)SOLID_ANGLE_UNIT());
#348=(CONVERSION_BASED_UNIT('DEGREE',#350)NAMED_UNIT(*)PLANE_ANGLE_UNIT());
#349=DIMENSIONAL_EXPONENTS(0.0,0.0,0.0,0.0,0.0,0.0,0.0);
#350=PLANE_ANGLE_MEASURE_WITH_UNIT(PLANE_ANGLE_MEASURE(0.0174532925),#351);
#351=(NAMED_UNIT(*)PLANE_ANGLE_UNIT()SI_UNIT($,.RADIAN.));
#352=(LENGTH_UNIT()NAMED_UNIT(*)SI_UNIT(.MILLI.,.METRE.));
#353=CARTESIAN_POINT('',(0.0,0.0,0.0));
#354=DIRECTION('',(0.0,0.0,1.0));
#355=DIRECTION('',(1.0,0.0,0.0));
#356=AXIS2_PLACEMENT_3D('PCS',#353,#354,#355);
#357=CARTESIAN_POINT('',(0.0,0.0,0.0));
#358=DIRECTION('',(0.0,0.0,1.0));
#359=DIRECTION('',(1.0,0.0,0.0));
#360=AXIS2_PLACEMENT_3D('MCS',#357,#358,#359);
#361=CARTESIAN_POINT('',(0.0,0.0,-100.0));
#362=DIRECTION('',(0.0,0.0,1.0));
#363=DIRECTION('',(1.0,0.0,0.0));
#364=AXIS2_PLACEMENT_3D('CSW',#361,#362,#363);
#365=CONSTRUCTIVE_GEOMETRY_REPRESENTATION('supplemental geometry',(#356,#360,#364),
     #345);
#366=CONSTRUCTIVE_GEOMETRY_REPRESENTATION_RELATIONSHIP('supplemental geometry',$,
     #22,#365);
ENDSEC;
END-ISO-10303-21;
