ISO-10303-21;
HEADER;
FILE_DESCRIPTION(
/* description */ ('3-D model version:1'),
/* implementation_level */ '2;1');
FILE_NAME(
/* name */ '392.41027-63 32 090B',
/* time_stamp */ '2016-12-02T13:51:47',
/* author */ ('InteractiveCad'),
/* organization */ ('AB Sandvik Coromant'),
/* preprocessor_version */ 'ST-DEVELOPER v15',
/* originating_system */ 'SIEMENS PLM Software NX 8.5',
/* authorization */ '');
FILE_SCHEMA(('AUTOMOTIVE_DESIGN'));
ENDSEC;
DATA;
#10=SHAPE_REPRESENTATION_RELATIONSHIP('None','relationship between 392.41027-6332090B-635515157024252652-1-None and 392.41027-6332090B-635515157024252652-1-None',
     #92,#11);
#11=ADVANCED_BREP_SHAPE_REPRESENTATION('392.41027-6332090B-635515157024252652-1-None',
     (#102),#395);
#15=APPROVAL_PERSON_ORGANIZATION(#69,#24,#18);
#16=APPROVAL_PERSON_ORGANIZATION(#70,#25,#19);
#17=APPROVAL_PERSON_ORGANIZATION(#71,#26,#20);
#18=APPROVAL_ROLE('approver');
#19=APPROVAL_ROLE('approver');
#20=APPROVAL_ROLE('approver');
#21=APPROVAL_DATE_TIME(#39,#24);
#22=APPROVAL_DATE_TIME(#40,#25);
#23=APPROVAL_DATE_TIME(#41,#26);
#24=APPROVAL(#27,' ');
#25=APPROVAL(#28,' ');
#26=APPROVAL(#29,' ');
#27=APPROVAL_STATUS('not_yet_approved');
#28=APPROVAL_STATUS('not_yet_approved');
#29=APPROVAL_STATUS('not_yet_approved');
#31=SECURITY_CLASSIFICATION(' ',' ',#32);
#32=SECURITY_CLASSIFICATION_LEVEL('confidential');
#35=DATE_TIME_ROLE('creation_date');
#36=DATE_TIME_ROLE('classification_date');
#37=DATE_AND_TIME(#52,#42);
#38=DATE_AND_TIME(#53,#43);
#39=DATE_AND_TIME(#54,#44);
#40=DATE_AND_TIME(#55,#45);
#41=DATE_AND_TIME(#56,#46);
#42=LOCAL_TIME(0,0,0.0,#47);
#43=LOCAL_TIME(0,0,0.0,#48);
#44=LOCAL_TIME(0,0,0.0,#49);
#45=LOCAL_TIME(0,0,0.0,#50);
#46=LOCAL_TIME(0,0,0.0,#51);
#47=COORDINATED_UNIVERSAL_TIME_OFFSET(0,0,.BEHIND.);
#48=COORDINATED_UNIVERSAL_TIME_OFFSET(0,0,.BEHIND.);
#49=COORDINATED_UNIVERSAL_TIME_OFFSET(0,0,.BEHIND.);
#50=COORDINATED_UNIVERSAL_TIME_OFFSET(0,0,.BEHIND.);
#51=COORDINATED_UNIVERSAL_TIME_OFFSET(0,0,.BEHIND.);
#52=CALENDAR_DATE(0,1,1);
#53=CALENDAR_DATE(0,1,1);
#54=CALENDAR_DATE(0,1,1);
#55=CALENDAR_DATE(0,1,1);
#56=CALENDAR_DATE(0,1,1);
#61=PERSON_AND_ORGANIZATION_ROLE('creator');
#62=PERSON_AND_ORGANIZATION_ROLE('design_owner');
#63=PERSON_AND_ORGANIZATION_ROLE('design_supplier');
#64=PERSON_AND_ORGANIZATION_ROLE('classification_officer');
#65=PERSON_AND_ORGANIZATION(#79,#72);
#66=PERSON_AND_ORGANIZATION(#79,#73);
#67=PERSON_AND_ORGANIZATION(#79,#74);
#68=PERSON_AND_ORGANIZATION(#79,#75);
#69=PERSON_AND_ORGANIZATION(#79,#76);
#70=PERSON_AND_ORGANIZATION(#79,#77);
#71=PERSON_AND_ORGANIZATION(#79,#78);
#72=ORGANIZATION(' ',' ',' ');
#73=ORGANIZATION(' ',' ',' ');
#74=ORGANIZATION(' ',' ',' ');
#75=ORGANIZATION(' ',' ',' ');
#76=ORGANIZATION(' ',' ',' ');
#77=ORGANIZATION(' ',' ',' ');
#78=ORGANIZATION(' ',' ',' ');
#79=PERSON(' ',' ',' ',(' '),$,$);
#80=SHAPE_DEFINITION_REPRESENTATION(#81,#92);
#81=PRODUCT_DEFINITION_SHAPE('','',#82);
#82=PRODUCT_DEFINITION(' ','',#84,$);
#84=PRODUCT_DEFINITION_FORMATION_WITH_SPECIFIED_SOURCE(' ',' ',#86,.NOT_KNOWN.);
#85=PRODUCT_RELATED_PRODUCT_CATEGORY('detail','',(#86));
#86=PRODUCT('392.41027-6332090B-635515157024252652-1','392.41027-6332090B-635515157024252652-1',
     ' ',());
#87=PRODUCT_CATEGORY('part',' ');
#88=PRODUCT_CATEGORY(' ','');
#90=APPLICATION_PROTOCOL_DEFINITION('international standard','config_control_design',
     2010,#91);
#91=APPLICATION_CONTEXT('configuration controlled 3D designs of mechanical parts and assemblies');
#92=SHAPE_REPRESENTATION('392.41027-6332090B-635515157024252652-1-None',(#260),#395);
#93=PRESENTATION_LAYER_ASSIGNMENT('1','Layer 1',(#102));
#94=STYLED_ITEM('',(#95),#102);
#95=PRESENTATION_STYLE_ASSIGNMENT((#96));
#96=SURFACE_STYLE_USAGE(.BOTH.,#97);
#97=SURFACE_SIDE_STYLE('',(#98));
#98=SURFACE_STYLE_FILL_AREA(#99);
#99=FILL_AREA_STYLE('',(#100));
#100=FILL_AREA_STYLE_COLOUR('',#101);
#101=COLOUR_RGB('TLS_NOCUT',0.499992370489052,0.499992370489052,0.499992370489052);
#102=MANIFOLD_SOLID_BREP('NOCUT',#103);
#103=CLOSED_SHELL('',(#120,#121,#122,#123,#124,#125,#126,#127,#128,#129,#130,#131,
     #132,#133,#134));
#104=FACE_OUTER_BOUND('',#184,.T.);
#105=FACE_OUTER_BOUND('',#185,.T.);
#106=CONICAL_SURFACE('',#269,31.47,60.0000000000009);
#107=CONICAL_SURFACE('',#277,28.9375471694755,59.9999999999993);
#108=CONICAL_SURFACE('',#283,24.3206312625251,2.86813194068655);
#109=CONICAL_SURFACE('',#288,24.0,45.0000000000001);
#110=CYLINDRICAL_SURFACE('',#267,31.47);
#111=CYLINDRICAL_SURFACE('',#273,27.475);
#112=CYLINDRICAL_SURFACE('',#279,31.47);
#113=CYLINDRICAL_SURFACE('',#289,26.0);
#114=PLANE('',#265);
#115=PLANE('',#271);
#116=PLANE('',#275);
#117=PLANE('',#281);
#118=PLANE('',#284);
#119=PLANE('',#286);
#120=ADVANCED_FACE('',(#136,#137),#135,.F.);
#121=ADVANCED_FACE('',(#138,#139),#114,.T.);
#122=ADVANCED_FACE('',(#140,#141),#110,.T.);
#123=ADVANCED_FACE('',(#142,#143),#106,.T.);
#124=ADVANCED_FACE('',(#144,#145),#115,.T.);
#125=ADVANCED_FACE('',(#146,#147),#111,.T.);
#126=ADVANCED_FACE('',(#148,#149),#116,.T.);
#127=ADVANCED_FACE('',(#150,#151),#107,.T.);
#128=ADVANCED_FACE('',(#152,#153),#112,.T.);
#129=ADVANCED_FACE('',(#154,#155),#117,.T.);
#130=ADVANCED_FACE('',(#156,#157),#108,.T.);
#131=ADVANCED_FACE('',(#104),#118,.T.);
#132=ADVANCED_FACE('',(#105),#119,.T.);
#133=ADVANCED_FACE('',(#158,#159),#109,.T.);
#134=ADVANCED_FACE('',(#160,#161),#113,.T.);
#135=TOROIDAL_SURFACE('',#263,27.0,1.0);
#136=FACE_BOUND('',#162,.T.);
#137=FACE_BOUND('',#163,.T.);
#138=FACE_BOUND('',#164,.T.);
#139=FACE_BOUND('',#165,.T.);
#140=FACE_BOUND('',#166,.T.);
#141=FACE_BOUND('',#167,.T.);
#142=FACE_BOUND('',#168,.T.);
#143=FACE_BOUND('',#169,.T.);
#144=FACE_BOUND('',#170,.T.);
#145=FACE_BOUND('',#171,.T.);
#146=FACE_BOUND('',#172,.T.);
#147=FACE_BOUND('',#173,.T.);
#148=FACE_BOUND('',#174,.T.);
#149=FACE_BOUND('',#175,.T.);
#150=FACE_BOUND('',#176,.T.);
#151=FACE_BOUND('',#177,.T.);
#152=FACE_BOUND('',#178,.T.);
#153=FACE_BOUND('',#179,.T.);
#154=FACE_BOUND('',#180,.T.);
#155=FACE_BOUND('',#181,.T.);
#156=FACE_BOUND('',#182,.T.);
#157=FACE_BOUND('',#183,.T.);
#158=FACE_BOUND('',#186,.T.);
#159=FACE_BOUND('',#187,.T.);
#160=FACE_BOUND('',#188,.T.);
#161=FACE_BOUND('',#189,.T.);
#162=EDGE_LOOP('',(#190));
#163=EDGE_LOOP('',(#191));
#164=EDGE_LOOP('',(#192));
#165=EDGE_LOOP('',(#193));
#166=EDGE_LOOP('',(#194));
#167=EDGE_LOOP('',(#195));
#168=EDGE_LOOP('',(#196));
#169=EDGE_LOOP('',(#197));
#170=EDGE_LOOP('',(#198));
#171=EDGE_LOOP('',(#199));
#172=EDGE_LOOP('',(#200));
#173=EDGE_LOOP('',(#201));
#174=EDGE_LOOP('',(#202));
#175=EDGE_LOOP('',(#203));
#176=EDGE_LOOP('',(#204));
#177=EDGE_LOOP('',(#205));
#178=EDGE_LOOP('',(#206));
#179=EDGE_LOOP('',(#207));
#180=EDGE_LOOP('',(#208));
#181=EDGE_LOOP('',(#209));
#182=EDGE_LOOP('',(#210));
#183=EDGE_LOOP('',(#211));
#184=EDGE_LOOP('',(#212));
#185=EDGE_LOOP('',(#213));
#186=EDGE_LOOP('',(#214));
#187=EDGE_LOOP('',(#215));
#188=EDGE_LOOP('',(#216));
#189=EDGE_LOOP('',(#217));
#190=ORIENTED_EDGE('',*,*,#232,.T.);
#191=ORIENTED_EDGE('',*,*,#233,.F.);
#192=ORIENTED_EDGE('',*,*,#234,.T.);
#193=ORIENTED_EDGE('',*,*,#232,.F.);
#194=ORIENTED_EDGE('',*,*,#235,.T.);
#195=ORIENTED_EDGE('',*,*,#234,.F.);
#196=ORIENTED_EDGE('',*,*,#236,.T.);
#197=ORIENTED_EDGE('',*,*,#235,.F.);
#198=ORIENTED_EDGE('',*,*,#237,.T.);
#199=ORIENTED_EDGE('',*,*,#236,.F.);
#200=ORIENTED_EDGE('',*,*,#238,.T.);
#201=ORIENTED_EDGE('',*,*,#237,.F.);
#202=ORIENTED_EDGE('',*,*,#239,.T.);
#203=ORIENTED_EDGE('',*,*,#238,.F.);
#204=ORIENTED_EDGE('',*,*,#240,.T.);
#205=ORIENTED_EDGE('',*,*,#239,.F.);
#206=ORIENTED_EDGE('',*,*,#241,.T.);
#207=ORIENTED_EDGE('',*,*,#240,.F.);
#208=ORIENTED_EDGE('',*,*,#242,.T.);
#209=ORIENTED_EDGE('',*,*,#241,.F.);
#210=ORIENTED_EDGE('',*,*,#243,.T.);
#211=ORIENTED_EDGE('',*,*,#242,.F.);
#212=ORIENTED_EDGE('',*,*,#243,.F.);
#213=ORIENTED_EDGE('',*,*,#244,.T.);
#214=ORIENTED_EDGE('',*,*,#245,.T.);
#215=ORIENTED_EDGE('',*,*,#244,.F.);
#216=ORIENTED_EDGE('',*,*,#233,.T.);
#217=ORIENTED_EDGE('',*,*,#245,.F.);
#218=VERTEX_POINT('',#352);
#219=VERTEX_POINT('',#354);
#220=VERTEX_POINT('',#357);
#221=VERTEX_POINT('',#360);
#222=VERTEX_POINT('',#363);
#223=VERTEX_POINT('',#366);
#224=VERTEX_POINT('',#369);
#225=VERTEX_POINT('',#372);
#226=VERTEX_POINT('',#375);
#227=VERTEX_POINT('',#378);
#228=VERTEX_POINT('',#381);
#229=VERTEX_POINT('',#384);
#230=VERTEX_POINT('',#388);
#231=VERTEX_POINT('',#391);
#232=EDGE_CURVE('',#218,#218,#246,.T.);
#233=EDGE_CURVE('',#219,#219,#247,.T.);
#234=EDGE_CURVE('',#220,#220,#248,.T.);
#235=EDGE_CURVE('',#221,#221,#249,.T.);
#236=EDGE_CURVE('',#222,#222,#250,.T.);
#237=EDGE_CURVE('',#223,#223,#251,.T.);
#238=EDGE_CURVE('',#224,#224,#252,.T.);
#239=EDGE_CURVE('',#225,#225,#253,.T.);
#240=EDGE_CURVE('',#226,#226,#254,.T.);
#241=EDGE_CURVE('',#227,#227,#255,.T.);
#242=EDGE_CURVE('',#228,#228,#256,.T.);
#243=EDGE_CURVE('',#229,#229,#257,.T.);
#244=EDGE_CURVE('',#230,#230,#258,.T.);
#245=EDGE_CURVE('',#231,#231,#259,.T.);
#246=CIRCLE('',#261,27.0);
#247=CIRCLE('',#262,26.0);
#248=CIRCLE('',#264,31.47);
#249=CIRCLE('',#266,31.47);
#250=CIRCLE('',#268,28.9375471694755);
#251=CIRCLE('',#270,27.475);
#252=CIRCLE('',#272,27.475);
#253=CIRCLE('',#274,28.9375471694755);
#254=CIRCLE('',#276,31.47);
#255=CIRCLE('',#278,31.47);
#256=CIRCLE('',#280,24.3206312625251);
#257=CIRCLE('',#282,22.7224348697396);
#258=CIRCLE('',#285,24.0);
#259=CIRCLE('',#287,26.0);
#260=AXIS2_PLACEMENT_3D('',#350,#290,#291);
#261=AXIS2_PLACEMENT_3D('',#351,#292,#293);
#262=AXIS2_PLACEMENT_3D('',#353,#294,#295);
#263=AXIS2_PLACEMENT_3D('',#355,#296,#297);
#264=AXIS2_PLACEMENT_3D('',#356,#298,#299);
#265=AXIS2_PLACEMENT_3D('',#358,#300,#301);
#266=AXIS2_PLACEMENT_3D('',#359,#302,#303);
#267=AXIS2_PLACEMENT_3D('',#361,#304,#305);
#268=AXIS2_PLACEMENT_3D('',#362,#306,#307);
#269=AXIS2_PLACEMENT_3D('',#364,#308,#309);
#270=AXIS2_PLACEMENT_3D('',#365,#310,#311);
#271=AXIS2_PLACEMENT_3D('',#367,#312,#313);
#272=AXIS2_PLACEMENT_3D('',#368,#314,#315);
#273=AXIS2_PLACEMENT_3D('',#370,#316,#317);
#274=AXIS2_PLACEMENT_3D('',#371,#318,#319);
#275=AXIS2_PLACEMENT_3D('',#373,#320,#321);
#276=AXIS2_PLACEMENT_3D('',#374,#322,#323);
#277=AXIS2_PLACEMENT_3D('',#376,#324,#325);
#278=AXIS2_PLACEMENT_3D('',#377,#326,#327);
#279=AXIS2_PLACEMENT_3D('',#379,#328,#329);
#280=AXIS2_PLACEMENT_3D('',#380,#330,#331);
#281=AXIS2_PLACEMENT_3D('',#382,#332,#333);
#282=AXIS2_PLACEMENT_3D('',#383,#334,#335);
#283=AXIS2_PLACEMENT_3D('',#385,#336,#337);
#284=AXIS2_PLACEMENT_3D('',#386,#338,#339);
#285=AXIS2_PLACEMENT_3D('',#387,#340,#341);
#286=AXIS2_PLACEMENT_3D('',#389,#342,#343);
#287=AXIS2_PLACEMENT_3D('',#390,#344,#345);
#288=AXIS2_PLACEMENT_3D('',#392,#346,#347);
#289=AXIS2_PLACEMENT_3D('',#393,#348,#349);
#290=DIRECTION('',(0.0,0.0,1.0));
#291=DIRECTION('',(1.0,0.0,0.0));
#292=DIRECTION('',(0.0,-1.45782260106709E-17,-1.0));
#293=DIRECTION('',(0.0,1.0,0.0));
#294=DIRECTION('',(0.0,-1.45782260106709E-17,-1.0));
#295=DIRECTION('',(0.0,1.0,0.0));
#296=DIRECTION('',(0.0,-1.45782260106709E-17,-1.0));
#297=DIRECTION('',(0.0,-1.0,0.0));
#298=DIRECTION('',(0.0,-1.45782260106709E-17,-1.0));
#299=DIRECTION('',(0.0,1.0,0.0));
#300=DIRECTION('',(0.0,-1.45782260106709E-17,-1.0));
#301=DIRECTION('',(0.0,-1.0,1.38777878078145E-17));
#302=DIRECTION('',(0.0,-1.45782260106709E-17,-1.0));
#303=DIRECTION('',(0.0,1.0,0.0));
#304=DIRECTION('',(0.0,-1.45782260106709E-17,-1.0));
#305=DIRECTION('',(0.0,-1.0,0.0));
#306=DIRECTION('',(0.0,-1.45782260106709E-17,-1.0));
#307=DIRECTION('',(0.0,1.0,0.0));
#308=DIRECTION('',(0.0,-1.45782260106709E-17,-1.0));
#309=DIRECTION('',(0.0,-1.0,-5.90202327706528E-18));
#310=DIRECTION('',(0.0,-1.45782260106709E-17,-1.0));
#311=DIRECTION('',(0.0,1.0,0.0));
#312=DIRECTION('',(0.0,1.45782260106709E-17,1.0));
#313=DIRECTION('',(0.0,1.0,-1.38777878078145E-17));
#314=DIRECTION('',(0.0,-1.45782260106709E-17,-1.0));
#315=DIRECTION('',(0.0,1.0,0.0));
#316=DIRECTION('',(0.0,-1.45782260106709E-17,-1.0));
#317=DIRECTION('',(0.0,-1.0,0.0));
#318=DIRECTION('',(0.0,-1.45782260106709E-17,-1.0));
#319=DIRECTION('',(0.0,1.0,0.0));
#320=DIRECTION('',(0.0,-1.45782260106709E-17,-1.0));
#321=DIRECTION('',(0.0,-1.0,1.38777878078145E-17));
#322=DIRECTION('',(0.0,-1.45782260106709E-17,-1.0));
#323=DIRECTION('',(0.0,1.0,0.0));
#324=DIRECTION('',(0.0,1.45782260106709E-17,1.0));
#325=DIRECTION('',(0.0,1.0,-1.97017029818417E-17));
#326=DIRECTION('',(0.0,-1.45782260106709E-17,-1.0));
#327=DIRECTION('',(0.0,1.0,-1.45782260106709E-17));
#328=DIRECTION('',(0.0,-1.45782260106709E-17,-1.0));
#329=DIRECTION('',(0.0,-1.0,0.0));
#330=DIRECTION('',(0.0,-1.45782260106709E-17,-1.0));
#331=DIRECTION('',(0.0,1.0,-1.45782260106709E-17));
#332=DIRECTION('',(0.0,1.45782260106709E-17,1.0));
#333=DIRECTION('',(0.0,1.0,-1.45782260106709E-17));
#334=DIRECTION('',(0.0,-1.45782260106709E-17,-1.0));
#335=DIRECTION('',(0.0,1.0,0.0));
#336=DIRECTION('',(0.0,-1.45782260106709E-17,-1.0));
#337=DIRECTION('',(0.0,-1.0,0.0));
#338=DIRECTION('',(0.0,1.45782260106709E-17,1.0));
#339=DIRECTION('',(0.0,1.0,-1.38777878078145E-17));
#340=DIRECTION('',(0.0,-1.45782260106709E-17,-1.0));
#341=DIRECTION('',(0.0,1.0,0.0));
#342=DIRECTION('',(0.0,-1.45782260106709E-17,-1.0));
#343=DIRECTION('',(0.0,-1.0,1.38777878078145E-17));
#344=DIRECTION('',(0.0,-1.45782260106709E-17,-1.0));
#345=DIRECTION('',(0.0,1.0,0.0));
#346=DIRECTION('',(0.0,1.45782260106709E-17,1.0));
#347=DIRECTION('',(0.0,1.0,2.71050543121375E-17));
#348=DIRECTION('',(0.0,-1.45782260106709E-17,-1.0));
#349=DIRECTION('',(0.0,-1.0,0.0));
#350=CARTESIAN_POINT('',(0.0,0.0,0.0));
#351=CARTESIAN_POINT('',(0.0,2.70936330408319E-15,-25.95));
#352=CARTESIAN_POINT('',(0.0,27.0,-25.95));
#353=CARTESIAN_POINT('',(0.0,2.69478507807252E-15,-26.95));
#354=CARTESIAN_POINT('',(0.0,26.0,-26.95));
#355=CARTESIAN_POINT('',(0.0,3.46944695195361E-15,-26.95));
#356=CARTESIAN_POINT('',(0.0,2.70936330408319E-15,-25.95));
#357=CARTESIAN_POINT('',(0.0,31.47,-25.95));
#358=CARTESIAN_POINT('',(0.0,27.0,-25.95));
#359=CARTESIAN_POINT('',(0.0,2.77606433971891E-15,-21.3746123234133));
#360=CARTESIAN_POINT('',(0.0,31.47,-21.3746123234133));
#361=CARTESIAN_POINT('',(0.0,3.5527136788005E-15,31.9));
#362=CARTESIAN_POINT('',(0.0,2.79737934362261E-15,-19.9125));
#363=CARTESIAN_POINT('',(0.0,28.9375471694755,-19.9125));
#364=CARTESIAN_POINT('',(0.0,2.77606433971891E-15,-21.3746123234133));
#365=CARTESIAN_POINT('',(0.0,2.79737934362261E-15,-19.9125));
#366=CARTESIAN_POINT('',(0.0,27.475,-19.9125));
#367=CARTESIAN_POINT('',(0.0,28.9375471694755,-19.9125));
#368=CARTESIAN_POINT('',(0.0,2.85314105811343E-15,-16.0875));
#369=CARTESIAN_POINT('',(0.0,27.475,-16.0875));
#370=CARTESIAN_POINT('',(0.0,3.5527136788005E-15,31.9));
#371=CARTESIAN_POINT('',(0.0,2.85314105811343E-15,-16.0875));
#372=CARTESIAN_POINT('',(0.0,28.9375471694755,-16.0875));
#373=CARTESIAN_POINT('',(0.0,27.475,-16.0875));
#374=CARTESIAN_POINT('',(0.0,2.87445606201714E-15,-14.6253876765866));
#375=CARTESIAN_POINT('',(0.0,31.47,-14.6253876765866));
#376=CARTESIAN_POINT('',(0.0,2.85314105811343E-15,-16.0875));
#377=CARTESIAN_POINT('',(0.0,3.0876682690601E-15,0.0));
#378=CARTESIAN_POINT('',(0.0,31.47,-4.58776772555814E-16));
#379=CARTESIAN_POINT('',(0.0,3.5527136788005E-15,31.9));
#380=CARTESIAN_POINT('',(0.0,3.0876682690601E-15,0.0));
#381=CARTESIAN_POINT('',(0.0,24.3206312625251,-3.5455165926728E-16));
#382=CARTESIAN_POINT('',(0.0,31.47,3.91976653205796E-16));
#383=CARTESIAN_POINT('',(0.0,3.5527136788005E-15,31.8999999999999));
#384=CARTESIAN_POINT('',(0.0,22.7224348697396,31.8999999999999));
#385=CARTESIAN_POINT('',(0.0,3.0876682690601E-15,0.0));
#386=CARTESIAN_POINT('',(0.0,17.025,31.9));
#387=CARTESIAN_POINT('',(0.0,1.77635683940025E-15,-89.95));
#388=CARTESIAN_POINT('',(0.0,24.0,-89.95));
#389=CARTESIAN_POINT('',(0.0,16.0,-89.95));
#390=CARTESIAN_POINT('',(0.0,1.80551329142159E-15,-87.95));
#391=CARTESIAN_POINT('',(0.0,26.0,-87.95));
#392=CARTESIAN_POINT('',(0.0,1.77635683940025E-15,-89.95));
#393=CARTESIAN_POINT('',(0.0,3.5527136788005E-15,31.9));
#394=MECHANICAL_DESIGN_GEOMETRIC_PRESENTATION_REPRESENTATION('',(#94),#395);
#395=(GEOMETRIC_REPRESENTATION_CONTEXT(3)GLOBAL_UNCERTAINTY_ASSIGNED_CONTEXT((#396))
     GLOBAL_UNIT_ASSIGNED_CONTEXT((#402,#398,#397))REPRESENTATION_CONTEXT('392','TOP_LEVEL_ASSEMBLY_PART'));
#396=UNCERTAINTY_MEASURE_WITH_UNIT(LENGTH_MEASURE(2.0E-5),#402,'DISTANCE_ACCURACY_VALUE',
     'Maximum Tolerance applied to model');
#397=(NAMED_UNIT(*)SI_UNIT($,.STERADIAN.)SOLID_ANGLE_UNIT());
#398=(CONVERSION_BASED_UNIT('DEGREE',#400)NAMED_UNIT(*)PLANE_ANGLE_UNIT());
#399=DIMENSIONAL_EXPONENTS(0.0,0.0,0.0,0.0,0.0,0.0,0.0);
#400=PLANE_ANGLE_MEASURE_WITH_UNIT(PLANE_ANGLE_MEASURE(0.0174532925),#401);
#401=(NAMED_UNIT(*)PLANE_ANGLE_UNIT()SI_UNIT($,.RADIAN.));
#402=(LENGTH_UNIT()NAMED_UNIT(*)SI_UNIT(.MILLI.,.METRE.));
#403=CARTESIAN_POINT('',(0.0,0.0,0.0));
#404=DIRECTION('',(0.0,0.0,1.0));
#405=DIRECTION('',(1.0,0.0,0.0));
#406=AXIS2_PLACEMENT_3D('PCS',#403,#404,#405);
#407=CARTESIAN_POINT('',(0.0,0.0,0.0));
#408=DIRECTION('',(0.0,0.0,1.0));
#409=DIRECTION('',(1.0,0.0,0.0));
#410=AXIS2_PLACEMENT_3D('MCS',#407,#408,#409);
#411=CARTESIAN_POINT('',(0.0,0.0,-90.0));
#412=DIRECTION('',(0.0,0.0,1.0));
#413=DIRECTION('',(1.0,0.0,0.0));
#414=AXIS2_PLACEMENT_3D('CSW',#411,#412,#413);
#415=CONSTRUCTIVE_GEOMETRY_REPRESENTATION('supplemental geometry',(#406,#410,#414),
     #395);
#416=CONSTRUCTIVE_GEOMETRY_REPRESENTATION_RELATIONSHIP('supplemental geometry',$,
     #92,#415);
ENDSEC;
END-ISO-10303-21;
