ISO-10303-21;
HEADER;
/* Generated by software containing ST-Developer
 * from STEP Tools, Inc. (www.steptools.com) 
 */
/* OPTION: using custom schema-name function */

FILE_DESCRIPTION(
/* description */ (''),
/* implementation_level */ '2;1');

FILE_NAME(
/* name */ '1493021199270.stp',
/* time_stamp */ '2017-04-24T10:06:45+02:00',
/* author */ (''),
/* organization */ ('SMS'),
/* preprocessor_version */ 'ST-DEVELOPER v15',
/* originating_system */ 'SIEMENS PLM Software NX 8.5',
/* authorisation */ '');

FILE_SCHEMA (('AUTOMOTIVE_DESIGN { 1 0 10303 214 3 1 1 1 }'));
ENDSEC;

DATA;
#10=CONSTRUCTIVE_GEOMETRY_REPRESENTATION_RELATIONSHIP(
'supplemental geometry','',#26,#11);
#11=CONSTRUCTIVE_GEOMETRY_REPRESENTATION('supplemental geometry',(#303,
#304,#305,#306),#519);
#12=GEOMETRICALLY_BOUNDED_WIREFRAME_SHAPE_REPRESENTATION(
'392.41014-10032100A-636200719572823976-1-None',(#27),#519);
#13=SHAPE_REPRESENTATION_RELATIONSHIP('None',
'relationship between 392.41014-10032100A-636200719572823976-1-None an
d 392.41014-10032100A-636200719572823976-1-None',#26,#15);
#14=SHAPE_REPRESENTATION_RELATIONSHIP('None',
'relationship between 392.41014-10032100A-636200719572823976-1-None an
d 392.41014-10032100A-636200719572823976-1-None',#26,#12);
#15=ADVANCED_BREP_SHAPE_REPRESENTATION(
'392.41014-10032100A-636200719572823976-1-None',(#33),#519);
#16=SHAPE_DEFINITION_REPRESENTATION(#17,#26);
#17=PRODUCT_DEFINITION_SHAPE('','',#18);
#18=PRODUCT_DEFINITION(' ','',#20,#19);
#19=PRODUCT_DEFINITION_CONTEXT('part definition',#25,'design');
#20=PRODUCT_DEFINITION_FORMATION_WITH_SPECIFIED_SOURCE(' ',' ',#22,
 .NOT_KNOWN.);
#21=PRODUCT_RELATED_PRODUCT_CATEGORY('part','',(#22));
#22=PRODUCT('392.41014-10032100A-636200719572823976-1',
'392.41014-10032100A-636200719572823976-1',' ',(#23));
#23=PRODUCT_CONTEXT(' ',#25,'mechanical');
#24=APPLICATION_PROTOCOL_DEFINITION('international standard',
'automotive_design',2010,#25);
#25=APPLICATION_CONTEXT(
'core data for automotive mechanical design processes');
#26=SHAPE_REPRESENTATION(
'392.41014-10032100A-636200719572823976-1-None',(#302),#519);
#27=GEOMETRIC_CURVE_SET('None',(#447,#448,#449));
#28=SURFACE_STYLE_USAGE(.BOTH.,#29);
#29=SURFACE_SIDE_STYLE('',(#30));
#30=SURFACE_STYLE_FILL_AREA(#31);
#31=FILL_AREA_STYLE('',(#32));
#32=FILL_AREA_STYLE_COLOUR('',#301);
#33=MANIFOLD_SOLID_BREP('NOCUT',#34);
#34=CLOSED_SHELL('',(#53,#54,#55,#56,#57,#58,#59,#60,#61,#62,#63,#64,#65,
#66,#67,#68,#69,#70,#71,#72,#73,#74));
#35=FACE_OUTER_BOUND('',#147,.T.);
#36=FACE_OUTER_BOUND('',#148,.T.);
#37=TOROIDAL_SURFACE('',#315,26.,2.);
#38=TOROIDAL_SURFACE('',#329,24.,1.);
#39=PLANE('',#313);
#40=PLANE('',#327);
#41=PLANE('',#334);
#42=PLANE('',#336);
#43=PLANE('',#340);
#44=PLANE('',#346);
#45=PLANE('',#349);
#46=CYLINDRICAL_SURFACE('',#311,49.965);
#47=CYLINDRICAL_SURFACE('',#317,24.);
#48=CYLINDRICAL_SURFACE('',#321,18.75);
#49=CYLINDRICAL_SURFACE('',#325,20.);
#50=CYLINDRICAL_SURFACE('',#331,25.);
#51=CYLINDRICAL_SURFACE('',#342,49.965);
#52=CYLINDRICAL_SURFACE('',#348,45.975);
#53=ADVANCED_FACE('',(#81,#82),#75,.T.);
#54=ADVANCED_FACE('',(#83,#84),#46,.T.);
#55=ADVANCED_FACE('',(#85,#86),#39,.F.);
#56=ADVANCED_FACE('',(#87,#88),#37,.F.);
#57=ADVANCED_FACE('',(#89,#90),#47,.T.);
#58=ADVANCED_FACE('',(#91,#92),#76,.T.);
#59=ADVANCED_FACE('',(#93,#94),#48,.T.);
#60=ADVANCED_FACE('',(#95,#96),#77,.T.);
#61=ADVANCED_FACE('',(#97,#98),#49,.T.);
#62=ADVANCED_FACE('',(#99,#100),#40,.F.);
#63=ADVANCED_FACE('',(#101,#102),#38,.T.);
#64=ADVANCED_FACE('',(#103,#104),#50,.T.);
#65=ADVANCED_FACE('',(#105,#106),#78,.T.);
#66=ADVANCED_FACE('',(#35),#41,.F.);
#67=ADVANCED_FACE('',(#36),#42,.F.);
#68=ADVANCED_FACE('',(#107,#108),#79,.T.);
#69=ADVANCED_FACE('',(#109,#110),#43,.F.);
#70=ADVANCED_FACE('',(#111,#112),#51,.T.);
#71=ADVANCED_FACE('',(#113,#114),#80,.T.);
#72=ADVANCED_FACE('',(#115,#116),#44,.F.);
#73=ADVANCED_FACE('',(#117,#118),#52,.T.);
#74=ADVANCED_FACE('',(#119,#120),#45,.F.);
#75=CONICAL_SURFACE('',#309,47.6625471694755,59.9999999999988);
#76=CONICAL_SURFACE('',#319,24.,30.0000000000003);
#77=CONICAL_SURFACE('',#323,18.75,29.9999999999989);
#78=CONICAL_SURFACE('',#333,25.,59.9999999999997);
#79=CONICAL_SURFACE('',#338,35.5075020040081,2.86813194068656);
#80=CONICAL_SURFACE('',#344,49.965,60.0000000000025);
#81=FACE_BOUND('',#121,.T.);
#82=FACE_BOUND('',#122,.T.);
#83=FACE_BOUND('',#123,.T.);
#84=FACE_BOUND('',#124,.T.);
#85=FACE_BOUND('',#125,.T.);
#86=FACE_BOUND('',#126,.T.);
#87=FACE_BOUND('',#127,.T.);
#88=FACE_BOUND('',#128,.T.);
#89=FACE_BOUND('',#129,.T.);
#90=FACE_BOUND('',#130,.T.);
#91=FACE_BOUND('',#131,.T.);
#92=FACE_BOUND('',#132,.T.);
#93=FACE_BOUND('',#133,.T.);
#94=FACE_BOUND('',#134,.T.);
#95=FACE_BOUND('',#135,.T.);
#96=FACE_BOUND('',#136,.T.);
#97=FACE_BOUND('',#137,.T.);
#98=FACE_BOUND('',#138,.T.);
#99=FACE_BOUND('',#139,.T.);
#100=FACE_BOUND('',#140,.T.);
#101=FACE_BOUND('',#141,.T.);
#102=FACE_BOUND('',#142,.T.);
#103=FACE_BOUND('',#143,.T.);
#104=FACE_BOUND('',#144,.T.);
#105=FACE_BOUND('',#145,.T.);
#106=FACE_BOUND('',#146,.T.);
#107=FACE_BOUND('',#149,.T.);
#108=FACE_BOUND('',#150,.T.);
#109=FACE_BOUND('',#151,.T.);
#110=FACE_BOUND('',#152,.T.);
#111=FACE_BOUND('',#153,.T.);
#112=FACE_BOUND('',#154,.T.);
#113=FACE_BOUND('',#155,.T.);
#114=FACE_BOUND('',#156,.T.);
#115=FACE_BOUND('',#157,.T.);
#116=FACE_BOUND('',#158,.T.);
#117=FACE_BOUND('',#159,.T.);
#118=FACE_BOUND('',#160,.T.);
#119=FACE_BOUND('',#161,.T.);
#120=FACE_BOUND('',#162,.T.);
#121=EDGE_LOOP('',(#163));
#122=EDGE_LOOP('',(#164));
#123=EDGE_LOOP('',(#165));
#124=EDGE_LOOP('',(#166));
#125=EDGE_LOOP('',(#167));
#126=EDGE_LOOP('',(#168));
#127=EDGE_LOOP('',(#169));
#128=EDGE_LOOP('',(#170));
#129=EDGE_LOOP('',(#171));
#130=EDGE_LOOP('',(#172));
#131=EDGE_LOOP('',(#173));
#132=EDGE_LOOP('',(#174));
#133=EDGE_LOOP('',(#175));
#134=EDGE_LOOP('',(#176));
#135=EDGE_LOOP('',(#177));
#136=EDGE_LOOP('',(#178));
#137=EDGE_LOOP('',(#179));
#138=EDGE_LOOP('',(#180));
#139=EDGE_LOOP('',(#181));
#140=EDGE_LOOP('',(#182));
#141=EDGE_LOOP('',(#183));
#142=EDGE_LOOP('',(#184));
#143=EDGE_LOOP('',(#185));
#144=EDGE_LOOP('',(#186));
#145=EDGE_LOOP('',(#187));
#146=EDGE_LOOP('',(#188));
#147=EDGE_LOOP('',(#189));
#148=EDGE_LOOP('',(#190));
#149=EDGE_LOOP('',(#191));
#150=EDGE_LOOP('',(#192));
#151=EDGE_LOOP('',(#193));
#152=EDGE_LOOP('',(#194));
#153=EDGE_LOOP('',(#195));
#154=EDGE_LOOP('',(#196));
#155=EDGE_LOOP('',(#197));
#156=EDGE_LOOP('',(#198));
#157=EDGE_LOOP('',(#199));
#158=EDGE_LOOP('',(#200));
#159=EDGE_LOOP('',(#201));
#160=EDGE_LOOP('',(#202));
#161=EDGE_LOOP('',(#203));
#162=EDGE_LOOP('',(#204));
#163=ORIENTED_EDGE('',*,*,#226,.F.);
#164=ORIENTED_EDGE('',*,*,#227,.T.);
#165=ORIENTED_EDGE('',*,*,#228,.F.);
#166=ORIENTED_EDGE('',*,*,#226,.T.);
#167=ORIENTED_EDGE('',*,*,#229,.F.);
#168=ORIENTED_EDGE('',*,*,#228,.T.);
#169=ORIENTED_EDGE('',*,*,#230,.F.);
#170=ORIENTED_EDGE('',*,*,#229,.T.);
#171=ORIENTED_EDGE('',*,*,#231,.F.);
#172=ORIENTED_EDGE('',*,*,#230,.T.);
#173=ORIENTED_EDGE('',*,*,#232,.F.);
#174=ORIENTED_EDGE('',*,*,#231,.T.);
#175=ORIENTED_EDGE('',*,*,#233,.F.);
#176=ORIENTED_EDGE('',*,*,#232,.T.);
#177=ORIENTED_EDGE('',*,*,#234,.F.);
#178=ORIENTED_EDGE('',*,*,#233,.T.);
#179=ORIENTED_EDGE('',*,*,#235,.F.);
#180=ORIENTED_EDGE('',*,*,#234,.T.);
#181=ORIENTED_EDGE('',*,*,#236,.F.);
#182=ORIENTED_EDGE('',*,*,#235,.T.);
#183=ORIENTED_EDGE('',*,*,#237,.F.);
#184=ORIENTED_EDGE('',*,*,#236,.T.);
#185=ORIENTED_EDGE('',*,*,#238,.F.);
#186=ORIENTED_EDGE('',*,*,#237,.T.);
#187=ORIENTED_EDGE('',*,*,#239,.F.);
#188=ORIENTED_EDGE('',*,*,#238,.T.);
#189=ORIENTED_EDGE('',*,*,#239,.T.);
#190=ORIENTED_EDGE('',*,*,#240,.F.);
#191=ORIENTED_EDGE('',*,*,#241,.F.);
#192=ORIENTED_EDGE('',*,*,#240,.T.);
#193=ORIENTED_EDGE('',*,*,#242,.F.);
#194=ORIENTED_EDGE('',*,*,#241,.T.);
#195=ORIENTED_EDGE('',*,*,#243,.F.);
#196=ORIENTED_EDGE('',*,*,#242,.T.);
#197=ORIENTED_EDGE('',*,*,#244,.F.);
#198=ORIENTED_EDGE('',*,*,#243,.T.);
#199=ORIENTED_EDGE('',*,*,#245,.F.);
#200=ORIENTED_EDGE('',*,*,#244,.T.);
#201=ORIENTED_EDGE('',*,*,#246,.F.);
#202=ORIENTED_EDGE('',*,*,#245,.T.);
#203=ORIENTED_EDGE('',*,*,#227,.F.);
#204=ORIENTED_EDGE('',*,*,#246,.T.);
#205=VERTEX_POINT('',#455);
#206=VERTEX_POINT('',#457);
#207=VERTEX_POINT('',#460);
#208=VERTEX_POINT('',#463);
#209=VERTEX_POINT('',#466);
#210=VERTEX_POINT('',#469);
#211=VERTEX_POINT('',#472);
#212=VERTEX_POINT('',#475);
#213=VERTEX_POINT('',#478);
#214=VERTEX_POINT('',#481);
#215=VERTEX_POINT('',#484);
#216=VERTEX_POINT('',#487);
#217=VERTEX_POINT('',#490);
#218=VERTEX_POINT('',#493);
#219=VERTEX_POINT('',#497);
#220=VERTEX_POINT('',#500);
#221=VERTEX_POINT('',#503);
#222=VERTEX_POINT('',#506);
#223=VERTEX_POINT('',#509);
#224=VERTEX_POINT('',#512);
#225=VERTEX_POINT('',#515);
#226=EDGE_CURVE('',#205,#205,#247,.T.);
#227=EDGE_CURVE('',#206,#206,#248,.T.);
#228=EDGE_CURVE('',#207,#207,#249,.T.);
#229=EDGE_CURVE('',#208,#208,#250,.T.);
#230=EDGE_CURVE('',#209,#209,#251,.T.);
#231=EDGE_CURVE('',#210,#210,#252,.T.);
#232=EDGE_CURVE('',#211,#211,#253,.T.);
#233=EDGE_CURVE('',#212,#212,#254,.T.);
#234=EDGE_CURVE('',#213,#213,#255,.T.);
#235=EDGE_CURVE('',#214,#214,#256,.T.);
#236=EDGE_CURVE('',#215,#215,#257,.T.);
#237=EDGE_CURVE('',#216,#216,#258,.T.);
#238=EDGE_CURVE('',#217,#217,#259,.T.);
#239=EDGE_CURVE('',#218,#218,#260,.T.);
#240=EDGE_CURVE('',#219,#219,#261,.T.);
#241=EDGE_CURVE('',#220,#220,#262,.T.);
#242=EDGE_CURVE('',#221,#221,#263,.T.);
#243=EDGE_CURVE('',#222,#222,#264,.T.);
#244=EDGE_CURVE('',#223,#223,#265,.T.);
#245=EDGE_CURVE('',#224,#224,#266,.T.);
#246=EDGE_CURVE('',#225,#225,#267,.T.);
#247=CIRCLE('',#307,49.965);
#248=CIRCLE('',#308,47.6625471694755);
#249=CIRCLE('',#310,49.965);
#250=CIRCLE('',#312,26.);
#251=CIRCLE('',#314,24.);
#252=CIRCLE('',#316,24.);
#253=CIRCLE('',#318,18.75);
#254=CIRCLE('',#320,18.75);
#255=CIRCLE('',#322,20.);
#256=CIRCLE('',#324,20.);
#257=CIRCLE('',#326,24.);
#258=CIRCLE('',#328,25.);
#259=CIRCLE('',#330,25.);
#260=CIRCLE('',#332,19.8038475772933);
#261=CIRCLE('',#335,35.5075020040081);
#262=CIRCLE('',#337,38.007502004008);
#263=CIRCLE('',#339,49.965);
#264=CIRCLE('',#341,49.965);
#265=CIRCLE('',#343,47.6625471694755);
#266=CIRCLE('',#345,45.975);
#267=CIRCLE('',#347,45.975);
#268=CURVE_STYLE('',#272,POSITIVE_LENGTH_MEASURE(0.13),#299);
#269=CURVE_STYLE('',#273,POSITIVE_LENGTH_MEASURE(0.18),#299);
#270=CURVE_STYLE('',#274,POSITIVE_LENGTH_MEASURE(0.18),#299);
#271=CURVE_STYLE('',#275,POSITIVE_LENGTH_MEASURE(0.18),#300);
#272=DRAUGHTING_PRE_DEFINED_CURVE_FONT('continuous');
#273=DRAUGHTING_PRE_DEFINED_CURVE_FONT('continuous');
#274=DRAUGHTING_PRE_DEFINED_CURVE_FONT('continuous');
#275=DRAUGHTING_PRE_DEFINED_CURVE_FONT('continuous');
#276=PRESENTATION_LAYER_ASSIGNMENT('1','Layer 1',(#447,#448,#449,#303,#304,
#305,#306,#33));
#277=STYLED_ITEM('',(#285),#447);
#278=STYLED_ITEM('',(#286),#448);
#279=STYLED_ITEM('',(#287),#449);
#280=STYLED_ITEM('',(#288),#303);
#281=STYLED_ITEM('',(#289),#304);
#282=STYLED_ITEM('',(#290),#305);
#283=STYLED_ITEM('',(#291),#306);
#284=STYLED_ITEM('',(#292),#33);
#285=PRESENTATION_STYLE_ASSIGNMENT((#293));
#286=PRESENTATION_STYLE_ASSIGNMENT((#294));
#287=PRESENTATION_STYLE_ASSIGNMENT((#295));
#288=PRESENTATION_STYLE_ASSIGNMENT((#268));
#289=PRESENTATION_STYLE_ASSIGNMENT((#269));
#290=PRESENTATION_STYLE_ASSIGNMENT((#270));
#291=PRESENTATION_STYLE_ASSIGNMENT((#271));
#292=PRESENTATION_STYLE_ASSIGNMENT((#28));
#293=POINT_STYLE('',#296,POSITIVE_LENGTH_MEASURE(3.),#299);
#294=POINT_STYLE('',#297,POSITIVE_LENGTH_MEASURE(3.),#299);
#295=POINT_STYLE('',#298,POSITIVE_LENGTH_MEASURE(3.),#300);
#296=PRE_DEFINED_POINT_MARKER_SYMBOL('plus');
#297=PRE_DEFINED_POINT_MARKER_SYMBOL('plus');
#298=PRE_DEFINED_POINT_MARKER_SYMBOL('plus');
#299=COLOUR_RGB('Strong Stone',0.576470588235294,0.54508278019379,0.392156862745098);
#300=COLOUR_RGB('Medium Maroon',0.6,0.4,0.4);
#301=COLOUR_RGB('TLS_NOCUT',0.499992370489052,0.499992370489052,0.499992370489052);
#302=AXIS2_PLACEMENT_3D('',#446,#350,#351);
#303=AXIS2_PLACEMENT_3D('',#450,#352,#353);
#304=AXIS2_PLACEMENT_3D('PCS',#451,#354,#355);
#305=AXIS2_PLACEMENT_3D('MCS',#452,#356,#357);
#306=AXIS2_PLACEMENT_3D('CSW',#453,#358,#359);
#307=AXIS2_PLACEMENT_3D('',#454,#360,#361);
#308=AXIS2_PLACEMENT_3D('',#456,#362,#363);
#309=AXIS2_PLACEMENT_3D('',#458,#364,#365);
#310=AXIS2_PLACEMENT_3D('',#459,#366,#367);
#311=AXIS2_PLACEMENT_3D('',#461,#368,#369);
#312=AXIS2_PLACEMENT_3D('',#462,#370,#371);
#313=AXIS2_PLACEMENT_3D('',#464,#372,#373);
#314=AXIS2_PLACEMENT_3D('',#465,#374,#375);
#315=AXIS2_PLACEMENT_3D('',#467,#376,#377);
#316=AXIS2_PLACEMENT_3D('',#468,#378,#379);
#317=AXIS2_PLACEMENT_3D('',#470,#380,#381);
#318=AXIS2_PLACEMENT_3D('',#471,#382,#383);
#319=AXIS2_PLACEMENT_3D('',#473,#384,#385);
#320=AXIS2_PLACEMENT_3D('',#474,#386,#387);
#321=AXIS2_PLACEMENT_3D('',#476,#388,#389);
#322=AXIS2_PLACEMENT_3D('',#477,#390,#391);
#323=AXIS2_PLACEMENT_3D('',#479,#392,#393);
#324=AXIS2_PLACEMENT_3D('',#480,#394,#395);
#325=AXIS2_PLACEMENT_3D('',#482,#396,#397);
#326=AXIS2_PLACEMENT_3D('',#483,#398,#399);
#327=AXIS2_PLACEMENT_3D('',#485,#400,#401);
#328=AXIS2_PLACEMENT_3D('',#486,#402,#403);
#329=AXIS2_PLACEMENT_3D('',#488,#404,#405);
#330=AXIS2_PLACEMENT_3D('',#489,#406,#407);
#331=AXIS2_PLACEMENT_3D('',#491,#408,#409);
#332=AXIS2_PLACEMENT_3D('',#492,#410,#411);
#333=AXIS2_PLACEMENT_3D('',#494,#412,#413);
#334=AXIS2_PLACEMENT_3D('',#495,#414,#415);
#335=AXIS2_PLACEMENT_3D('',#496,#416,#417);
#336=AXIS2_PLACEMENT_3D('',#498,#418,#419);
#337=AXIS2_PLACEMENT_3D('',#499,#420,#421);
#338=AXIS2_PLACEMENT_3D('',#501,#422,#423);
#339=AXIS2_PLACEMENT_3D('',#502,#424,#425);
#340=AXIS2_PLACEMENT_3D('',#504,#426,#427);
#341=AXIS2_PLACEMENT_3D('',#505,#428,#429);
#342=AXIS2_PLACEMENT_3D('',#507,#430,#431);
#343=AXIS2_PLACEMENT_3D('',#508,#432,#433);
#344=AXIS2_PLACEMENT_3D('',#510,#434,#435);
#345=AXIS2_PLACEMENT_3D('',#511,#436,#437);
#346=AXIS2_PLACEMENT_3D('',#513,#438,#439);
#347=AXIS2_PLACEMENT_3D('',#514,#440,#441);
#348=AXIS2_PLACEMENT_3D('',#516,#442,#443);
#349=AXIS2_PLACEMENT_3D('',#517,#444,#445);
#350=DIRECTION('',(0.,0.,1.));
#351=DIRECTION('',(1.,0.,0.));
#352=DIRECTION('',(0.,0.,1.));
#353=DIRECTION('',(1.,0.,0.));
#354=DIRECTION('',(0.,0.,1.));
#355=DIRECTION('',(1.,0.,0.));
#356=DIRECTION('',(0.,0.,1.));
#357=DIRECTION('',(1.,0.,0.));
#358=DIRECTION('',(0.,0.,1.));
#359=DIRECTION('',(1.,0.,0.));
#360=DIRECTION('',(0.,0.,-1.));
#361=DIRECTION('',(-1.,0.,0.));
#362=DIRECTION('',(0.,0.,-1.));
#363=DIRECTION('',(-1.,0.,0.));
#364=DIRECTION('',(0.,0.,-1.));
#365=DIRECTION('',(1.,0.,0.));
#366=DIRECTION('',(0.,0.,-1.));
#367=DIRECTION('',(-1.,0.,0.));
#368=DIRECTION('',(0.,0.,-1.));
#369=DIRECTION('',(1.,0.,0.));
#370=DIRECTION('',(0.,0.,-1.));
#371=DIRECTION('',(-1.,0.,0.));
#372=DIRECTION('',(0.,0.,1.));
#373=DIRECTION('',(-1.,0.,0.));
#374=DIRECTION('',(0.,0.,-1.));
#375=DIRECTION('',(-1.,0.,0.));
#376=DIRECTION('',(0.,0.,-1.));
#377=DIRECTION('',(1.,0.,0.));
#378=DIRECTION('',(0.,0.,-1.));
#379=DIRECTION('',(-1.,0.,0.));
#380=DIRECTION('',(0.,0.,-1.));
#381=DIRECTION('',(1.,0.,0.));
#382=DIRECTION('',(0.,0.,-1.));
#383=DIRECTION('',(-1.,0.,0.));
#384=DIRECTION('',(0.,0.,1.));
#385=DIRECTION('',(-1.,0.,-3.46165667137288E-017));
#386=DIRECTION('',(0.,0.,-1.));
#387=DIRECTION('',(-1.,0.,0.));
#388=DIRECTION('',(0.,0.,-1.));
#389=DIRECTION('',(1.,0.,0.));
#390=DIRECTION('',(0.,0.,-1.));
#391=DIRECTION('',(-1.,0.,0.));
#392=DIRECTION('',(0.,0.,-1.));
#393=DIRECTION('',(1.,0.,-1.16404810776896E-016));
#394=DIRECTION('',(0.,0.,-1.));
#395=DIRECTION('',(-1.,0.,0.));
#396=DIRECTION('',(0.,0.,-1.));
#397=DIRECTION('',(1.,0.,0.));
#398=DIRECTION('',(0.,0.,-1.));
#399=DIRECTION('',(-1.,0.,0.));
#400=DIRECTION('',(0.,0.,-1.));
#401=DIRECTION('',(1.,0.,0.));
#402=DIRECTION('',(0.,0.,-1.));
#403=DIRECTION('',(-1.,0.,0.));
#404=DIRECTION('',(0.,0.,-1.));
#405=DIRECTION('',(1.,0.,0.));
#406=DIRECTION('',(0.,0.,-1.));
#407=DIRECTION('',(-1.,0.,0.));
#408=DIRECTION('',(0.,0.,-1.));
#409=DIRECTION('',(1.,0.,0.));
#410=DIRECTION('',(0.,0.,-1.));
#411=DIRECTION('',(-1.,0.,0.));
#412=DIRECTION('',(0.,0.,1.));
#413=DIRECTION('',(-1.,0.,1.57966835654758E-017));
#414=DIRECTION('',(0.,0.,1.));
#415=DIRECTION('',(-1.,0.,0.));
#416=DIRECTION('',(0.,0.,-1.));
#417=DIRECTION('',(-1.,0.,0.));
#418=DIRECTION('',(0.,0.,-1.));
#419=DIRECTION('',(1.,0.,0.));
#420=DIRECTION('',(0.,0.,-1.));
#421=DIRECTION('',(-1.,0.,0.));
#422=DIRECTION('',(0.,0.,-1.));
#423=DIRECTION('',(1.,0.,6.4843641018148E-016));
#424=DIRECTION('',(0.,0.,-1.));
#425=DIRECTION('',(-1.,0.,0.));
#426=DIRECTION('',(0.,0.,-1.));
#427=DIRECTION('',(1.,0.,0.));
#428=DIRECTION('',(0.,0.,-1.));
#429=DIRECTION('',(-1.,0.,0.));
#430=DIRECTION('',(0.,0.,-1.));
#431=DIRECTION('',(1.,0.,0.));
#432=DIRECTION('',(0.,0.,-1.));
#433=DIRECTION('',(-1.,0.,0.));
#434=DIRECTION('',(0.,0.,1.));
#435=DIRECTION('',(-1.,0.,-2.33630718911735E-017));
#436=DIRECTION('',(0.,0.,-1.));
#437=DIRECTION('',(-1.,0.,0.));
#438=DIRECTION('',(0.,0.,1.));
#439=DIRECTION('',(-1.,0.,0.));
#440=DIRECTION('',(0.,0.,-1.));
#441=DIRECTION('',(-1.,0.,0.));
#442=DIRECTION('',(0.,0.,-1.));
#443=DIRECTION('',(1.,0.,0.));
#444=DIRECTION('',(0.,0.,-1.));
#445=DIRECTION('',(1.,0.,0.));
#446=CARTESIAN_POINT('',(0.,0.,0.));
#447=CARTESIAN_POINT('',(0.,0.,0.));
#448=CARTESIAN_POINT('',(0.,0.,0.));
#449=CARTESIAN_POINT('',(0.,0.,-87.));
#450=CARTESIAN_POINT('',(0.,0.,0.));
#451=CARTESIAN_POINT('',(0.,0.,0.));
#452=CARTESIAN_POINT('',(0.,0.,0.));
#453=CARTESIAN_POINT('',(0.,0.,-87.));
#454=CARTESIAN_POINT('',(1.77635683940025E-015,0.,-23.2418217614998));
#455=CARTESIAN_POINT('',(-49.965,0.,-23.2418217614998));
#456=CARTESIAN_POINT('',(1.77635683940025E-015,0.,-21.9125));
#457=CARTESIAN_POINT('',(-47.6625471694755,0.,-21.9125));
#458=CARTESIAN_POINT('',(1.77635683940025E-015,0.,-21.9125));
#459=CARTESIAN_POINT('',(1.77635683940025E-015,0.,-28.95));
#460=CARTESIAN_POINT('',(-49.965,0.,-28.95));
#461=CARTESIAN_POINT('',(1.77635683940025E-015,0.,49.9));
#462=CARTESIAN_POINT('',(1.77635683940025E-015,0.,-28.95));
#463=CARTESIAN_POINT('',(-26.,0.,-28.95));
#464=CARTESIAN_POINT('',(-49.965,0.,-28.95));
#465=CARTESIAN_POINT('',(1.77635683940025E-015,0.,-30.95));
#466=CARTESIAN_POINT('',(-24.,0.,-30.95));
#467=CARTESIAN_POINT('',(3.46944695195361E-015,0.,-30.95));
#468=CARTESIAN_POINT('',(1.77635683940025E-015,0.,-57.8567332602635));
#469=CARTESIAN_POINT('',(-24.,0.,-57.8567332602635));
#470=CARTESIAN_POINT('',(1.77635683940025E-015,0.,49.9));
#471=CARTESIAN_POINT('',(1.77635683940025E-015,0.,-66.95));
#472=CARTESIAN_POINT('',(-18.75,0.,-66.95));
#473=CARTESIAN_POINT('',(1.77635683940025E-015,0.,-57.8567332602635));
#474=CARTESIAN_POINT('',(1.77635683940025E-015,0.,-70.95));
#475=CARTESIAN_POINT('',(-18.75,0.,-70.95));
#476=CARTESIAN_POINT('',(1.77635683940025E-015,0.,49.9));
#477=CARTESIAN_POINT('',(1.77635683940025E-015,0.,-73.1150635094612));
#478=CARTESIAN_POINT('',(-20.,0.,-73.1150635094612));
#479=CARTESIAN_POINT('',(1.77635683940025E-015,0.,-70.95));
#480=CARTESIAN_POINT('',(1.77635683940025E-015,0.,-77.45));
#481=CARTESIAN_POINT('',(-20.,0.,-77.45));
#482=CARTESIAN_POINT('',(1.77635683940025E-015,0.,49.9));
#483=CARTESIAN_POINT('',(1.77635683940025E-015,0.,-77.45));
#484=CARTESIAN_POINT('',(-24.,0.,-77.45));
#485=CARTESIAN_POINT('',(-20.,0.,-77.45));
#486=CARTESIAN_POINT('',(1.77635683940025E-015,0.,-78.45));
#487=CARTESIAN_POINT('',(-25.,0.,-78.45));
#488=CARTESIAN_POINT('',(3.46944695195361E-015,0.,-78.45));
#489=CARTESIAN_POINT('',(1.77635683940025E-015,0.,-96.95));
#490=CARTESIAN_POINT('',(-25.,0.,-96.95));
#491=CARTESIAN_POINT('',(1.77635683940025E-015,0.,49.9));
#492=CARTESIAN_POINT('',(1.77635683940025E-015,0.,-99.9500000000001));
#493=CARTESIAN_POINT('',(-19.8038475772933,0.,-99.9500000000001));
#494=CARTESIAN_POINT('',(1.77635683940025E-015,0.,-96.95));
#495=CARTESIAN_POINT('',(-13.1472232502674,0.,-99.95));
#496=CARTESIAN_POINT('',(1.77635683940025E-015,0.,49.9));
#497=CARTESIAN_POINT('',(-35.5075020040081,0.,49.9));
#498=CARTESIAN_POINT('',(-26.53,0.,49.9));
#499=CARTESIAN_POINT('',(1.77635683940025E-015,0.,0.));
#500=CARTESIAN_POINT('',(-38.007502004008,0.,0.));
#501=CARTESIAN_POINT('',(1.77635683940025E-015,0.,49.9));
#502=CARTESIAN_POINT('',(1.77635683940025E-015,0.,0.));
#503=CARTESIAN_POINT('',(-49.965,0.,0.));
#504=CARTESIAN_POINT('',(-38.007502004008,0.,4.44089209850063E-016));
#505=CARTESIAN_POINT('',(1.77635683940025E-015,0.,-16.7581782385003));
#506=CARTESIAN_POINT('',(-49.965,0.,-16.7581782385003));
#507=CARTESIAN_POINT('',(1.77635683940025E-015,0.,49.9));
#508=CARTESIAN_POINT('',(1.77635683940025E-015,0.,-18.0874999999999));
#509=CARTESIAN_POINT('',(-47.6625471694755,0.,-18.0874999999999));
#510=CARTESIAN_POINT('',(1.77635683940025E-015,0.,-16.7581782385003));
#511=CARTESIAN_POINT('',(1.77635683940025E-015,0.,-18.0875));
#512=CARTESIAN_POINT('',(-45.975,0.,-18.0875));
#513=CARTESIAN_POINT('',(-47.6625471694755,0.,-18.0875));
#514=CARTESIAN_POINT('',(1.77635683940025E-015,0.,-21.9125));
#515=CARTESIAN_POINT('',(-45.975,0.,-21.9125));
#516=CARTESIAN_POINT('',(1.77635683940025E-015,0.,49.9));
#517=CARTESIAN_POINT('',(-45.975,0.,-21.9125));
#518=MECHANICAL_DESIGN_GEOMETRIC_PRESENTATION_REPRESENTATION('',(#277,#278,
#279,#280,#281,#282,#283,#284),#519);
#519=(
GEOMETRIC_REPRESENTATION_CONTEXT(3)
GLOBAL_UNCERTAINTY_ASSIGNED_CONTEXT((#520))
GLOBAL_UNIT_ASSIGNED_CONTEXT((#526,#522,#521))
REPRESENTATION_CONTEXT('1493021199270','TOP_LEVEL_ASSEMBLY_PART')
);
#520=UNCERTAINTY_MEASURE_WITH_UNIT(LENGTH_MEASURE(2.E-005),#526,
'DISTANCE_ACCURACY_VALUE','Maximum Tolerance applied to model');
#521=(
NAMED_UNIT(*)
SI_UNIT($,.STERADIAN.)
SOLID_ANGLE_UNIT()
);
#522=(
CONVERSION_BASED_UNIT('DEGREE',#524)
NAMED_UNIT(#523)
PLANE_ANGLE_UNIT()
);
#523=DIMENSIONAL_EXPONENTS(0.,0.,0.,0.,0.,0.,0.);
#524=PLANE_ANGLE_MEASURE_WITH_UNIT(PLANE_ANGLE_MEASURE(0.0174532925),#525);
#525=(
NAMED_UNIT(*)
PLANE_ANGLE_UNIT()
SI_UNIT($,.RADIAN.)
);
#526=(
LENGTH_UNIT()
NAMED_UNIT(*)
SI_UNIT(.MILLI.,.METRE.)
);
ENDSEC;
END-ISO-10303-21;
