ISO-10303-21;
HEADER;
FILE_DESCRIPTION(
/* description */ ('3-D model version:1'),
/* implementation_level */ '2;1');
FILE_NAME(
/* name */ '392.140EH-4020046',
/* time_stamp */ '2016-12-02T13:56:28',
/* author */ ('InteractiveCad'),
/* organization */ ('AB Sandvik Coromant'),
/* preprocessor_version */ 'ST-DEVELOPER v11',
/* originating_system */ 'SIEMENS UGS NX 6.0',
/* authorization */ '');
FILE_SCHEMA(('AUTOMOTIVE_DESIGN'));
ENDSEC;
DATA;
#10=SHAPE_REPRESENTATION_RELATIONSHIP('None','relationship between ds66C9944o86-None and ds66C9944o86-None',
     #22,#11);
#11=ADVANCED_BREP_SHAPE_REPRESENTATION('ds66C9944o86-None',(#32),#445);
#12=SHAPE_DEFINITION_REPRESENTATION(#13,#22);
#13=PRODUCT_DEFINITION_SHAPE('','',#14);
#14=PRODUCT_DEFINITION(' ','',#16,#15);
#15=PRODUCT_DEFINITION_CONTEXT('part definition',#21,'design');
#16=PRODUCT_DEFINITION_FORMATION_WITH_SPECIFIED_SOURCE(' ',' ',#18,.NOT_KNOWN.);
#17=PRODUCT_RELATED_PRODUCT_CATEGORY('part','',(#18));
#18=PRODUCT('ds66C9944o86','ds66C9944o86',' ',(#19));
#19=PRODUCT_CONTEXT(' ',#21,'mechanical');
#20=APPLICATION_PROTOCOL_DEFINITION('international standard','automotive_design',
     2001,#21);
#21=APPLICATION_CONTEXT('core data for automotive mechanical design processes');
#22=SHAPE_REPRESENTATION('ds66C9944o86-None',(#256),#445);
#23=PRESENTATION_LAYER_ASSIGNMENT('1','Layer 1',(#32));
#24=STYLED_ITEM('',(#25),#32);
#25=PRESENTATION_STYLE_ASSIGNMENT((#26));
#26=SURFACE_STYLE_USAGE(.BOTH.,#27);
#27=SURFACE_SIDE_STYLE('',(#28));
#28=SURFACE_STYLE_FILL_AREA(#29);
#29=FILL_AREA_STYLE('',(#30));
#30=FILL_AREA_STYLE_COLOUR('',#31);
#31=COLOUR_RGB('Medium Gray',0.490196078431373,0.490196078431373,0.490196078431373);
#32=MANIFOLD_SOLID_BREP('NOCUT',#33);
#33=CLOSED_SHELL('',(#52,#53,#54,#55,#56,#57,#58,#59,#60,#61,#62,#63,#64,#65,#66,
     #67,#68,#69,#70,#71,#72));
#34=FACE_OUTER_BOUND('',#146,.T.);
#35=FACE_OUTER_BOUND('',#147,.T.);
#36=PLANE('',#265);
#37=PLANE('',#269);
#38=PLANE('',#277);
#39=PLANE('',#288);
#40=PLANE('',#290);
#41=PLANE('',#297);
#42=CONICAL_SURFACE('',#263,31.75,60.0000000000007);
#43=CONICAL_SURFACE('',#271,28.9625471694755,59.9999999999999);
#44=CONICAL_SURFACE('',#283,22.0,30.0000000000028);
#45=CONICAL_SURFACE('',#285,22.3270929619175,8.29791666666682);
#46=CONICAL_SURFACE('',#296,13.3059047744873,75.0);
#47=CYLINDRICAL_SURFACE('',#261,31.75);
#48=CYLINDRICAL_SURFACE('',#267,28.0);
#49=CYLINDRICAL_SURFACE('',#273,31.75);
#50=CYLINDRICAL_SURFACE('',#281,22.0);
#51=CYLINDRICAL_SURFACE('',#292,9.6);
#52=ADVANCED_FACE('',(#78,#79),#73,.T.);
#53=ADVANCED_FACE('',(#80,#81),#47,.T.);
#54=ADVANCED_FACE('',(#82,#83),#42,.T.);
#55=ADVANCED_FACE('',(#84,#85),#36,.F.);
#56=ADVANCED_FACE('',(#86,#87),#48,.T.);
#57=ADVANCED_FACE('',(#88,#89),#37,.F.);
#58=ADVANCED_FACE('',(#90,#91),#43,.T.);
#59=ADVANCED_FACE('',(#92,#93),#49,.T.);
#60=ADVANCED_FACE('',(#94,#95),#74,.T.);
#61=ADVANCED_FACE('',(#96,#97),#38,.F.);
#62=ADVANCED_FACE('',(#98,#99),#75,.F.);
#63=ADVANCED_FACE('',(#100,#101),#50,.T.);
#64=ADVANCED_FACE('',(#102,#103),#44,.T.);
#65=ADVANCED_FACE('',(#104,#105),#45,.T.);
#66=ADVANCED_FACE('',(#106,#107),#76,.T.);
#67=ADVANCED_FACE('',(#34),#39,.F.);
#68=ADVANCED_FACE('',(#35),#40,.F.);
#69=ADVANCED_FACE('',(#108,#109),#51,.T.);
#70=ADVANCED_FACE('',(#110,#111),#77,.F.);
#71=ADVANCED_FACE('',(#112,#113),#46,.T.);
#72=ADVANCED_FACE('',(#114,#115),#41,.F.);
#73=TOROIDAL_SURFACE('',#259,30.75,1.0);
#74=TOROIDAL_SURFACE('',#275,30.75,1.0);
#75=TOROIDAL_SURFACE('',#279,22.6,0.6);
#76=TOROIDAL_SURFACE('',#287,11.4062035801479,1.0);
#77=TOROIDAL_SURFACE('',#294,14.6,5.0);
#78=FACE_BOUND('',#116,.T.);
#79=FACE_BOUND('',#117,.T.);
#80=FACE_BOUND('',#118,.T.);
#81=FACE_BOUND('',#119,.T.);
#82=FACE_BOUND('',#120,.T.);
#83=FACE_BOUND('',#121,.T.);
#84=FACE_BOUND('',#122,.T.);
#85=FACE_BOUND('',#123,.T.);
#86=FACE_BOUND('',#124,.T.);
#87=FACE_BOUND('',#125,.T.);
#88=FACE_BOUND('',#126,.T.);
#89=FACE_BOUND('',#127,.T.);
#90=FACE_BOUND('',#128,.T.);
#91=FACE_BOUND('',#129,.T.);
#92=FACE_BOUND('',#130,.T.);
#93=FACE_BOUND('',#131,.T.);
#94=FACE_BOUND('',#132,.T.);
#95=FACE_BOUND('',#133,.T.);
#96=FACE_BOUND('',#134,.T.);
#97=FACE_BOUND('',#135,.T.);
#98=FACE_BOUND('',#136,.T.);
#99=FACE_BOUND('',#137,.T.);
#100=FACE_BOUND('',#138,.T.);
#101=FACE_BOUND('',#139,.T.);
#102=FACE_BOUND('',#140,.T.);
#103=FACE_BOUND('',#141,.T.);
#104=FACE_BOUND('',#142,.T.);
#105=FACE_BOUND('',#143,.T.);
#106=FACE_BOUND('',#144,.T.);
#107=FACE_BOUND('',#145,.T.);
#108=FACE_BOUND('',#148,.T.);
#109=FACE_BOUND('',#149,.T.);
#110=FACE_BOUND('',#150,.T.);
#111=FACE_BOUND('',#151,.T.);
#112=FACE_BOUND('',#152,.T.);
#113=FACE_BOUND('',#153,.T.);
#114=FACE_BOUND('',#154,.T.);
#115=FACE_BOUND('',#155,.T.);
#116=EDGE_LOOP('',(#156));
#117=EDGE_LOOP('',(#157));
#118=EDGE_LOOP('',(#158));
#119=EDGE_LOOP('',(#159));
#120=EDGE_LOOP('',(#160));
#121=EDGE_LOOP('',(#161));
#122=EDGE_LOOP('',(#162));
#123=EDGE_LOOP('',(#163));
#124=EDGE_LOOP('',(#164));
#125=EDGE_LOOP('',(#165));
#126=EDGE_LOOP('',(#166));
#127=EDGE_LOOP('',(#167));
#128=EDGE_LOOP('',(#168));
#129=EDGE_LOOP('',(#169));
#130=EDGE_LOOP('',(#170));
#131=EDGE_LOOP('',(#171));
#132=EDGE_LOOP('',(#172));
#133=EDGE_LOOP('',(#173));
#134=EDGE_LOOP('',(#174));
#135=EDGE_LOOP('',(#175));
#136=EDGE_LOOP('',(#176));
#137=EDGE_LOOP('',(#177));
#138=EDGE_LOOP('',(#178));
#139=EDGE_LOOP('',(#179));
#140=EDGE_LOOP('',(#180));
#141=EDGE_LOOP('',(#181));
#142=EDGE_LOOP('',(#182));
#143=EDGE_LOOP('',(#183));
#144=EDGE_LOOP('',(#184));
#145=EDGE_LOOP('',(#185));
#146=EDGE_LOOP('',(#186));
#147=EDGE_LOOP('',(#187));
#148=EDGE_LOOP('',(#188));
#149=EDGE_LOOP('',(#189));
#150=EDGE_LOOP('',(#190));
#151=EDGE_LOOP('',(#191));
#152=EDGE_LOOP('',(#192));
#153=EDGE_LOOP('',(#193));
#154=EDGE_LOOP('',(#194));
#155=EDGE_LOOP('',(#195));
#156=ORIENTED_EDGE('',*,*,#216,.F.);
#157=ORIENTED_EDGE('',*,*,#217,.T.);
#158=ORIENTED_EDGE('',*,*,#218,.F.);
#159=ORIENTED_EDGE('',*,*,#216,.T.);
#160=ORIENTED_EDGE('',*,*,#219,.F.);
#161=ORIENTED_EDGE('',*,*,#218,.T.);
#162=ORIENTED_EDGE('',*,*,#220,.F.);
#163=ORIENTED_EDGE('',*,*,#219,.T.);
#164=ORIENTED_EDGE('',*,*,#221,.F.);
#165=ORIENTED_EDGE('',*,*,#220,.T.);
#166=ORIENTED_EDGE('',*,*,#222,.F.);
#167=ORIENTED_EDGE('',*,*,#221,.T.);
#168=ORIENTED_EDGE('',*,*,#223,.F.);
#169=ORIENTED_EDGE('',*,*,#222,.T.);
#170=ORIENTED_EDGE('',*,*,#224,.F.);
#171=ORIENTED_EDGE('',*,*,#223,.T.);
#172=ORIENTED_EDGE('',*,*,#225,.F.);
#173=ORIENTED_EDGE('',*,*,#224,.T.);
#174=ORIENTED_EDGE('',*,*,#226,.F.);
#175=ORIENTED_EDGE('',*,*,#225,.T.);
#176=ORIENTED_EDGE('',*,*,#227,.F.);
#177=ORIENTED_EDGE('',*,*,#226,.T.);
#178=ORIENTED_EDGE('',*,*,#228,.F.);
#179=ORIENTED_EDGE('',*,*,#227,.T.);
#180=ORIENTED_EDGE('',*,*,#229,.F.);
#181=ORIENTED_EDGE('',*,*,#228,.T.);
#182=ORIENTED_EDGE('',*,*,#230,.F.);
#183=ORIENTED_EDGE('',*,*,#229,.T.);
#184=ORIENTED_EDGE('',*,*,#231,.F.);
#185=ORIENTED_EDGE('',*,*,#230,.T.);
#186=ORIENTED_EDGE('',*,*,#231,.T.);
#187=ORIENTED_EDGE('',*,*,#232,.F.);
#188=ORIENTED_EDGE('',*,*,#233,.F.);
#189=ORIENTED_EDGE('',*,*,#232,.T.);
#190=ORIENTED_EDGE('',*,*,#234,.F.);
#191=ORIENTED_EDGE('',*,*,#233,.T.);
#192=ORIENTED_EDGE('',*,*,#235,.F.);
#193=ORIENTED_EDGE('',*,*,#234,.T.);
#194=ORIENTED_EDGE('',*,*,#217,.F.);
#195=ORIENTED_EDGE('',*,*,#235,.T.);
#196=VERTEX_POINT('',#384);
#197=VERTEX_POINT('',#386);
#198=VERTEX_POINT('',#389);
#199=VERTEX_POINT('',#392);
#200=VERTEX_POINT('',#395);
#201=VERTEX_POINT('',#398);
#202=VERTEX_POINT('',#401);
#203=VERTEX_POINT('',#404);
#204=VERTEX_POINT('',#407);
#205=VERTEX_POINT('',#410);
#206=VERTEX_POINT('',#413);
#207=VERTEX_POINT('',#416);
#208=VERTEX_POINT('',#419);
#209=VERTEX_POINT('',#422);
#210=VERTEX_POINT('',#425);
#211=VERTEX_POINT('',#428);
#212=VERTEX_POINT('',#432);
#213=VERTEX_POINT('',#435);
#214=VERTEX_POINT('',#438);
#215=VERTEX_POINT('',#441);
#216=EDGE_CURVE('',#196,#196,#236,.T.);
#217=EDGE_CURVE('',#197,#197,#237,.T.);
#218=EDGE_CURVE('',#198,#198,#238,.T.);
#219=EDGE_CURVE('',#199,#199,#239,.T.);
#220=EDGE_CURVE('',#200,#200,#240,.T.);
#221=EDGE_CURVE('',#201,#201,#241,.T.);
#222=EDGE_CURVE('',#202,#202,#242,.T.);
#223=EDGE_CURVE('',#203,#203,#243,.T.);
#224=EDGE_CURVE('',#204,#204,#244,.T.);
#225=EDGE_CURVE('',#205,#205,#245,.T.);
#226=EDGE_CURVE('',#206,#206,#246,.T.);
#227=EDGE_CURVE('',#207,#207,#247,.T.);
#228=EDGE_CURVE('',#208,#208,#248,.T.);
#229=EDGE_CURVE('',#209,#209,#249,.T.);
#230=EDGE_CURVE('',#210,#210,#250,.T.);
#231=EDGE_CURVE('',#211,#211,#251,.T.);
#232=EDGE_CURVE('',#212,#212,#252,.T.);
#233=EDGE_CURVE('',#213,#213,#253,.T.);
#234=EDGE_CURVE('',#214,#214,#254,.T.);
#235=EDGE_CURVE('',#215,#215,#255,.T.);
#236=CIRCLE('',#257,31.75);
#237=CIRCLE('',#258,30.75);
#238=CIRCLE('',#260,31.75);
#239=CIRCLE('',#262,28.9625471694755);
#240=CIRCLE('',#264,28.0);
#241=CIRCLE('',#266,28.0);
#242=CIRCLE('',#268,28.9625471694755);
#243=CIRCLE('',#270,31.75);
#244=CIRCLE('',#272,31.75);
#245=CIRCLE('',#274,30.75);
#246=CIRCLE('',#276,22.6);
#247=CIRCLE('',#278,22.0);
#248=CIRCLE('',#280,22.0);
#249=CIRCLE('',#282,22.3270929619175);
#250=CIRCLE('',#284,12.3957346175023);
#251=CIRCLE('',#286,11.4062035801479);
#252=CIRCLE('',#289,9.6);
#253=CIRCLE('',#291,9.6);
#254=CIRCLE('',#293,13.3059047744873);
#255=CIRCLE('',#295,25.0000000000001);
#256=AXIS2_PLACEMENT_3D('',#382,#298,#299);
#257=AXIS2_PLACEMENT_3D('',#383,#300,#301);
#258=AXIS2_PLACEMENT_3D('',#385,#302,#303);
#259=AXIS2_PLACEMENT_3D('',#387,#304,#305);
#260=AXIS2_PLACEMENT_3D('',#388,#306,#307);
#261=AXIS2_PLACEMENT_3D('',#390,#308,#309);
#262=AXIS2_PLACEMENT_3D('',#391,#310,#311);
#263=AXIS2_PLACEMENT_3D('',#393,#312,#313);
#264=AXIS2_PLACEMENT_3D('',#394,#314,#315);
#265=AXIS2_PLACEMENT_3D('',#396,#316,#317);
#266=AXIS2_PLACEMENT_3D('',#397,#318,#319);
#267=AXIS2_PLACEMENT_3D('',#399,#320,#321);
#268=AXIS2_PLACEMENT_3D('',#400,#322,#323);
#269=AXIS2_PLACEMENT_3D('',#402,#324,#325);
#270=AXIS2_PLACEMENT_3D('',#403,#326,#327);
#271=AXIS2_PLACEMENT_3D('',#405,#328,#329);
#272=AXIS2_PLACEMENT_3D('',#406,#330,#331);
#273=AXIS2_PLACEMENT_3D('',#408,#332,#333);
#274=AXIS2_PLACEMENT_3D('',#409,#334,#335);
#275=AXIS2_PLACEMENT_3D('',#411,#336,#337);
#276=AXIS2_PLACEMENT_3D('',#412,#338,#339);
#277=AXIS2_PLACEMENT_3D('',#414,#340,#341);
#278=AXIS2_PLACEMENT_3D('',#415,#342,#343);
#279=AXIS2_PLACEMENT_3D('',#417,#344,#345);
#280=AXIS2_PLACEMENT_3D('',#418,#346,#347);
#281=AXIS2_PLACEMENT_3D('',#420,#348,#349);
#282=AXIS2_PLACEMENT_3D('',#421,#350,#351);
#283=AXIS2_PLACEMENT_3D('',#423,#352,#353);
#284=AXIS2_PLACEMENT_3D('',#424,#354,#355);
#285=AXIS2_PLACEMENT_3D('',#426,#356,#357);
#286=AXIS2_PLACEMENT_3D('',#427,#358,#359);
#287=AXIS2_PLACEMENT_3D('',#429,#360,#361);
#288=AXIS2_PLACEMENT_3D('',#430,#362,#363);
#289=AXIS2_PLACEMENT_3D('',#431,#364,#365);
#290=AXIS2_PLACEMENT_3D('',#433,#366,#367);
#291=AXIS2_PLACEMENT_3D('',#434,#368,#369);
#292=AXIS2_PLACEMENT_3D('',#436,#370,#371);
#293=AXIS2_PLACEMENT_3D('',#437,#372,#373);
#294=AXIS2_PLACEMENT_3D('',#439,#374,#375);
#295=AXIS2_PLACEMENT_3D('',#440,#376,#377);
#296=AXIS2_PLACEMENT_3D('',#442,#378,#379);
#297=AXIS2_PLACEMENT_3D('',#443,#380,#381);
#298=DIRECTION('',(0.0,0.0,1.0));
#299=DIRECTION('',(1.0,0.0,0.0));
#300=DIRECTION('',(0.0,0.0,1.0));
#301=DIRECTION('',(1.0,0.0,0.0));
#302=DIRECTION('',(0.0,0.0,1.0));
#303=DIRECTION('',(1.0,0.0,0.0));
#304=DIRECTION('',(0.0,0.0,1.0));
#305=DIRECTION('',(1.0,0.0,0.0));
#306=DIRECTION('',(0.0,0.0,1.0));
#307=DIRECTION('',(1.0,0.0,0.0));
#308=DIRECTION('',(0.0,0.0,1.0));
#309=DIRECTION('',(1.0,0.0,0.0));
#310=DIRECTION('',(0.0,0.0,1.0));
#311=DIRECTION('',(1.0,0.0,0.0));
#312=DIRECTION('',(0.0,0.0,-1.0));
#313=DIRECTION('',(-1.0,0.0,-2.36043453686968E-17));
#314=DIRECTION('',(0.0,0.0,1.0));
#315=DIRECTION('',(1.0,0.0,0.0));
#316=DIRECTION('',(0.0,0.0,-1.0));
#317=DIRECTION('',(-1.0,0.0,0.0));
#318=DIRECTION('',(0.0,0.0,1.0));
#319=DIRECTION('',(1.0,0.0,0.0));
#320=DIRECTION('',(0.0,0.0,1.0));
#321=DIRECTION('',(1.0,0.0,0.0));
#322=DIRECTION('',(0.0,0.0,1.0));
#323=DIRECTION('',(1.0,0.0,0.0));
#324=DIRECTION('',(0.0,0.0,1.0));
#325=DIRECTION('',(1.0,0.0,0.0));
#326=DIRECTION('',(0.0,0.0,1.0));
#327=DIRECTION('',(1.0,0.0,0.0));
#328=DIRECTION('',(0.0,0.0,1.0));
#329=DIRECTION('',(1.0,0.0,-7.88056931565771E-18));
#330=DIRECTION('',(0.0,0.0,1.0));
#331=DIRECTION('',(1.0,0.0,0.0));
#332=DIRECTION('',(0.0,0.0,1.0));
#333=DIRECTION('',(1.0,0.0,0.0));
#334=DIRECTION('',(0.0,0.0,1.0));
#335=DIRECTION('',(1.0,0.0,0.0));
#336=DIRECTION('',(0.0,0.0,1.0));
#337=DIRECTION('',(1.0,0.0,0.0));
#338=DIRECTION('',(0.0,0.0,1.0));
#339=DIRECTION('',(1.0,0.0,0.0));
#340=DIRECTION('',(0.0,0.0,-1.0));
#341=DIRECTION('',(-1.0,0.0,0.0));
#342=DIRECTION('',(0.0,0.0,1.0));
#343=DIRECTION('',(1.0,0.0,0.0));
#344=DIRECTION('',(0.0,0.0,1.0));
#345=DIRECTION('',(1.0,0.0,0.0));
#346=DIRECTION('',(0.0,0.0,1.0));
#347=DIRECTION('',(1.0,0.0,0.0));
#348=DIRECTION('',(0.0,0.0,1.0));
#349=DIRECTION('',(1.0,0.0,0.0));
#350=DIRECTION('',(0.0,0.0,1.0));
#351=DIRECTION('',(1.0,0.0,0.0));
#352=DIRECTION('',(0.0,0.0,1.0));
#353=DIRECTION('',(1.0,0.0,4.63094404765245E-17));
#354=DIRECTION('',(0.0,0.0,1.0));
#355=DIRECTION('',(1.0,0.0,0.0));
#356=DIRECTION('',(0.0,0.0,-1.0));
#357=DIRECTION('',(-1.0,0.0,4.95121939325494E-16));
#358=DIRECTION('',(0.0,0.0,1.0));
#359=DIRECTION('',(1.0,0.0,0.0));
#360=DIRECTION('',(0.0,0.0,1.0));
#361=DIRECTION('',(1.0,0.0,0.0));
#362=DIRECTION('',(0.0,0.0,-1.0));
#363=DIRECTION('',(-1.0,0.0,0.0));
#364=DIRECTION('',(0.0,0.0,1.0));
#365=DIRECTION('',(1.0,0.0,0.0));
#366=DIRECTION('',(0.0,0.0,1.0));
#367=DIRECTION('',(1.0,0.0,0.0));
#368=DIRECTION('',(0.0,0.0,1.0));
#369=DIRECTION('',(1.0,0.0,0.0));
#370=DIRECTION('',(0.0,0.0,1.0));
#371=DIRECTION('',(1.0,0.0,0.0));
#372=DIRECTION('',(0.0,0.0,1.0));
#373=DIRECTION('',(1.0,0.0,0.0));
#374=DIRECTION('',(0.0,0.0,1.0));
#375=DIRECTION('',(1.0,0.0,0.0));
#376=DIRECTION('',(0.0,0.0,1.0));
#377=DIRECTION('',(1.0,0.0,0.0));
#378=DIRECTION('',(0.0,0.0,1.0));
#379=DIRECTION('',(1.0,0.0,-1.29686598788504E-17));
#380=DIRECTION('',(0.0,0.0,1.0));
#381=DIRECTION('',(1.0,0.0,0.0));
#382=CARTESIAN_POINT('',(0.0,0.0,0.0));
#383=CARTESIAN_POINT('',(0.0,0.0,-18.05));
#384=CARTESIAN_POINT('',(31.75,0.0,-18.05));
#385=CARTESIAN_POINT('',(0.0,0.0,-19.05));
#386=CARTESIAN_POINT('',(30.75,0.0,-19.05));
#387=CARTESIAN_POINT('',(0.0,0.0,-18.05));
#388=CARTESIAN_POINT('',(0.0,0.0,-14.6218366420567));
#389=CARTESIAN_POINT('',(31.75,0.0,-14.6218366420567));
#390=CARTESIAN_POINT('',(0.0,0.0,-46.05));
#391=CARTESIAN_POINT('',(0.0,0.0,-13.0125));
#392=CARTESIAN_POINT('',(28.9625471694755,0.0,-13.0125));
#393=CARTESIAN_POINT('',(0.0,0.0,-14.6218366420567));
#394=CARTESIAN_POINT('',(0.0,0.0,-13.0125));
#395=CARTESIAN_POINT('',(28.0,0.0,-13.0125));
#396=CARTESIAN_POINT('',(0.0,-28.9625471694755,-13.0125));
#397=CARTESIAN_POINT('',(0.0,0.0,-9.18749999999999));
#398=CARTESIAN_POINT('',(28.0,0.0,-9.18749999999999));
#399=CARTESIAN_POINT('',(0.0,0.0,-46.05));
#400=CARTESIAN_POINT('',(0.0,0.0,-9.1875));
#401=CARTESIAN_POINT('',(28.9625471694755,0.0,-9.1875));
#402=CARTESIAN_POINT('',(0.0,-28.0,-9.1875));
#403=CARTESIAN_POINT('',(0.0,0.0,-7.57816335794328));
#404=CARTESIAN_POINT('',(31.75,0.0,-7.57816335794328));
#405=CARTESIAN_POINT('',(0.0,0.0,-9.1875));
#406=CARTESIAN_POINT('',(0.0,0.0,-4.2));
#407=CARTESIAN_POINT('',(31.75,0.0,-4.2));
#408=CARTESIAN_POINT('',(0.0,0.0,-46.05));
#409=CARTESIAN_POINT('',(0.0,0.0,-3.2));
#410=CARTESIAN_POINT('',(30.75,0.0,-3.2));
#411=CARTESIAN_POINT('',(0.0,0.0,-4.2));
#412=CARTESIAN_POINT('',(0.0,0.0,-3.2));
#413=CARTESIAN_POINT('',(22.6,0.0,-3.2));
#414=CARTESIAN_POINT('',(0.0,-30.75,-3.2));
#415=CARTESIAN_POINT('',(0.0,0.0,-2.6));
#416=CARTESIAN_POINT('',(22.0,0.0,-2.6));
#417=CARTESIAN_POINT('',(0.0,0.0,-2.6));
#418=CARTESIAN_POINT('',(0.0,0.0,-1.26654162883924));
#419=CARTESIAN_POINT('',(22.0,0.0,-1.26654162883924));
#420=CARTESIAN_POINT('',(0.0,0.0,-46.05));
#421=CARTESIAN_POINT('',(0.0,0.0,-0.700000000000006));
#422=CARTESIAN_POINT('',(22.3270929619175,0.0,-0.700000000000006));
#423=CARTESIAN_POINT('',(0.0,0.0,-1.26654162883924));
#424=CARTESIAN_POINT('',(0.0,0.0,67.3943202207325));
#425=CARTESIAN_POINT('',(12.3957346175023,0.0,67.3943202207325));
#426=CARTESIAN_POINT('',(0.0,0.0,-0.700000000000006));
#427=CARTESIAN_POINT('',(0.0,0.0,68.25));
#428=CARTESIAN_POINT('',(11.4062035801479,0.0,68.25));
#429=CARTESIAN_POINT('',(0.0,0.0,67.25));
#430=CARTESIAN_POINT('',(0.0,-10.0045,68.25));
#431=CARTESIAN_POINT('',(0.0,0.0,-46.05));
#432=CARTESIAN_POINT('',(9.6,0.0,-46.05));
#433=CARTESIAN_POINT('',(0.0,0.0,-46.05));
#434=CARTESIAN_POINT('',(0.0,0.0,-27.0130525033341));
#435=CARTESIAN_POINT('',(9.6,0.0,-27.0130525033341));
#436=CARTESIAN_POINT('',(0.0,0.0,-46.05));
#437=CARTESIAN_POINT('',(0.0,0.0,-22.1834233718888));
#438=CARTESIAN_POINT('',(13.3059047744873,0.0,-22.1834233718888));
#439=CARTESIAN_POINT('',(0.0,0.0,-27.0130525033341));
#440=CARTESIAN_POINT('',(0.0,0.0,-19.05));
#441=CARTESIAN_POINT('',(25.0000000000001,0.0,-19.05));
#442=CARTESIAN_POINT('',(0.0,0.0,-22.1834233718888));
#443=CARTESIAN_POINT('',(0.0,-25.0000000000001,-19.05));
#444=MECHANICAL_DESIGN_GEOMETRIC_PRESENTATION_REPRESENTATION('',(#24),#445);
#445=(GEOMETRIC_REPRESENTATION_CONTEXT(3)GLOBAL_UNCERTAINTY_ASSIGNED_CONTEXT((#446))
     GLOBAL_UNIT_ASSIGNED_CONTEXT((#452,#448,#447))REPRESENTATION_CONTEXT('392','TOP_LEVEL_ASSEMBLY_PART'));
#446=UNCERTAINTY_MEASURE_WITH_UNIT(LENGTH_MEASURE(2.0E-5),#452,'DISTANCE_ACCURACY_VALUE',
     'Maximum Tolerance applied to model');
#447=(NAMED_UNIT(*)SI_UNIT($,.STERADIAN.)SOLID_ANGLE_UNIT());
#448=(CONVERSION_BASED_UNIT('DEGREE',#450)NAMED_UNIT(*)PLANE_ANGLE_UNIT());
#449=DIMENSIONAL_EXPONENTS(0.0,0.0,0.0,0.0,0.0,0.0,0.0);
#450=PLANE_ANGLE_MEASURE_WITH_UNIT(PLANE_ANGLE_MEASURE(0.0174532925),#451);
#451=(NAMED_UNIT(*)PLANE_ANGLE_UNIT()SI_UNIT($,.RADIAN.));
#452=(LENGTH_UNIT()NAMED_UNIT(*)SI_UNIT(.MILLI.,.METRE.));
#453=CARTESIAN_POINT('',(0.0,0.0,0.0));
#454=DIRECTION('',(0.0,0.0,1.0));
#455=DIRECTION('',(1.0,0.0,0.0));
#456=AXIS2_PLACEMENT_3D('PCS',#453,#454,#455);
#457=CARTESIAN_POINT('',(0.0,0.0,0.0));
#458=DIRECTION('',(0.0,0.0,1.0));
#459=DIRECTION('',(1.0,0.0,0.0));
#460=AXIS2_PLACEMENT_3D('MCS',#457,#458,#459);
#461=CARTESIAN_POINT('',(0.0,0.0,-46.0));
#462=DIRECTION('',(0.0,0.0,1.0));
#463=DIRECTION('',(1.0,0.0,0.0));
#464=AXIS2_PLACEMENT_3D('CSW',#461,#462,#463);
#465=CONSTRUCTIVE_GEOMETRY_REPRESENTATION('supplemental geometry',(#456,#460,#464),
     #445);
#466=CONSTRUCTIVE_GEOMETRY_REPRESENTATION_RELATIONSHIP('supplemental geometry',$,
     #22,#465);
ENDSEC;
END-ISO-10303-21;
