ISO-10303-21;
HEADER;
/* Generated by software containing ST-Developer
 * from STEP Tools, Inc. (www.steptools.com) 
 */
/* OPTION: using custom schema-name function */

FILE_DESCRIPTION(
/* description */ (''),
/* implementation_level */ '2;1');

FILE_NAME(
/* name */ '1513938498060.stp',
/* time_stamp */ '2017-12-22T11:28:25+01:00',
/* author */ (''),
/* organization */ ('SMS'),
/* preprocessor_version */ 'ST-DEVELOPER v15',
/* originating_system */ 'SIEMENS PLM Software NX 8.5',
/* authorisation */ '');

FILE_SCHEMA (('AUTOMOTIVE_DESIGN { 1 0 10303 214 3 1 1 1 }'));
ENDSEC;

DATA;
#10=CONSTRUCTIVE_GEOMETRY_REPRESENTATION_RELATIONSHIP(
'supplemental geometry','',#24,#11);
#11=CONSTRUCTIVE_GEOMETRY_REPRESENTATION('supplemental geometry',(#377,
#378,#379),#652);
#12=SHAPE_REPRESENTATION_RELATIONSHIP('None',
'relationship between 200835383mod000_01-None and 200835383mod000_01-N
one',#24,#13);
#13=ADVANCED_BREP_SHAPE_REPRESENTATION('200835383mod000_01-None',(#30),
#652);
#14=SHAPE_DEFINITION_REPRESENTATION(#15,#24);
#15=PRODUCT_DEFINITION_SHAPE('','',#16);
#16=PRODUCT_DEFINITION(' ','',#18,#17);
#17=PRODUCT_DEFINITION_CONTEXT('part definition',#23,'design');
#18=PRODUCT_DEFINITION_FORMATION_WITH_SPECIFIED_SOURCE(' ',' ',#20,
 .NOT_KNOWN.);
#19=PRODUCT_RELATED_PRODUCT_CATEGORY('part','',(#20));
#20=PRODUCT('200835383mod000_01','200835383mod000_01',' ',(#21));
#21=PRODUCT_CONTEXT(' ',#23,'mechanical');
#22=APPLICATION_PROTOCOL_DEFINITION('international standard',
'automotive_design',2010,#23);
#23=APPLICATION_CONTEXT(
'core data for automotive mechanical design processes');
#24=SHAPE_REPRESENTATION('200835383mod000_01-None',(#376),#652);
#25=SURFACE_STYLE_USAGE(.BOTH.,#26);
#26=SURFACE_SIDE_STYLE('',(#27));
#27=SURFACE_STYLE_FILL_AREA(#28);
#28=FILL_AREA_STYLE('',(#29));
#29=FILL_AREA_STYLE_COLOUR('',#372);
#30=MANIFOLD_SOLID_BREP('NOCUT',#31);
#31=CLOSED_SHELL('',(#60,#61,#62,#63,#64,#65,#66,#67,#68,#69,#70,#71,#72,
#73,#74,#75,#76,#77,#78,#79,#80,#81,#82,#83));
#32=VERTEX_LOOP('',#277);
#33=CONICAL_SURFACE('',#398,7.00675000000006,30.0000000000001);
#34=CONICAL_SURFACE('',#403,0.,64.9999999999998);
#35=CONICAL_SURFACE('',#414,20.,1.43916666666667);
#36=CONICAL_SURFACE('',#416,8.5,1.43916666666667);
#37=CONICAL_SURFACE('',#418,20.,1.43916666666667);
#38=CONICAL_SURFACE('',#420,8.5,1.43916666666667);
#39=CONICAL_SURFACE('',#422,20.,1.43916666666667);
#40=CONICAL_SURFACE('',#424,8.5,1.43916666666667);
#41=CYLINDRICAL_SURFACE('',#385,41.5);
#42=CYLINDRICAL_SURFACE('',#392,19.996);
#43=CYLINDRICAL_SURFACE('',#397,7.00675000000006);
#44=CYLINDRICAL_SURFACE('',#402,2.);
#45=CYLINDRICAL_SURFACE('',#405,20.);
#46=CYLINDRICAL_SURFACE('',#428,7.);
#47=FACE_OUTER_BOUND('',#149,.T.);
#48=FACE_OUTER_BOUND('',#150,.T.);
#49=FACE_OUTER_BOUND('',#156,.T.);
#50=FACE_OUTER_BOUND('',#157,.T.);
#51=FACE_OUTER_BOUND('',#162,.T.);
#52=FACE_OUTER_BOUND('',#163,.T.);
#53=FACE_OUTER_BOUND('',#171,.T.);
#54=FACE_OUTER_BOUND('',#172,.T.);
#55=FACE_OUTER_BOUND('',#173,.T.);
#56=FACE_OUTER_BOUND('',#174,.T.);
#57=FACE_OUTER_BOUND('',#175,.T.);
#58=FACE_OUTER_BOUND('',#176,.T.);
#59=FACE_OUTER_BOUND('',#181,.T.);
#60=ADVANCED_FACE('',(#122,#123,#124),#84,.T.);
#61=ADVANCED_FACE('',(#47),#41,.T.);
#62=ADVANCED_FACE('',(#48),#85,.T.);
#63=ADVANCED_FACE('',(#125,#126,#127),#86,.T.);
#64=ADVANCED_FACE('',(#128,#129),#42,.T.);
#65=ADVANCED_FACE('',(#49),#87,.T.);
#66=ADVANCED_FACE('',(#50),#88,.T.);
#67=ADVANCED_FACE('',(#130,#131),#43,.F.);
#68=ADVANCED_FACE('',(#132,#133),#33,.F.);
#69=ADVANCED_FACE('',(#51),#89,.F.);
#70=ADVANCED_FACE('',(#52),#90,.T.);
#71=ADVANCED_FACE('',(#134,#135),#44,.F.);
#72=ADVANCED_FACE('',(#136,#137),#34,.F.);
#73=ADVANCED_FACE('',(#138,#139),#45,.T.);
#74=ADVANCED_FACE('',(#140,#141),#91,.T.);
#75=ADVANCED_FACE('',(#53),#35,.F.);
#76=ADVANCED_FACE('',(#54),#36,.F.);
#77=ADVANCED_FACE('',(#55),#37,.F.);
#78=ADVANCED_FACE('',(#56),#38,.F.);
#79=ADVANCED_FACE('',(#57),#39,.F.);
#80=ADVANCED_FACE('',(#58),#40,.F.);
#81=ADVANCED_FACE('',(#142,#143),#92,.T.);
#82=ADVANCED_FACE('',(#144,#145),#46,.T.);
#83=ADVANCED_FACE('',(#59),#93,.T.);
#84=PLANE('',#383);
#85=PLANE('',#386);
#86=PLANE('',#389);
#87=PLANE('',#393);
#88=PLANE('',#395);
#89=PLANE('',#399);
#90=PLANE('',#400);
#91=PLANE('',#412);
#92=PLANE('',#426);
#93=PLANE('',#429);
#94=LINE('',#563,#108);
#95=LINE('',#565,#109);
#96=LINE('',#567,#110);
#97=LINE('',#571,#111);
#98=LINE('',#578,#112);
#99=LINE('',#583,#113);
#100=LINE('',#587,#114);
#101=LINE('',#596,#115);
#102=LINE('',#620,#116);
#103=LINE('',#624,#117);
#104=LINE('',#626,#118);
#105=LINE('',#630,#119);
#106=LINE('',#634,#120);
#107=LINE('',#640,#121);
#108=VECTOR('',#444,1.);
#109=VECTOR('',#447,1.);
#110=VECTOR('',#448,1.);
#111=VECTOR('',#453,1.);
#112=VECTOR('',#462,1.);
#113=VECTOR('',#465,1.);
#114=VECTOR('',#470,1.);
#115=VECTOR('',#483,1.);
#116=VECTOR('',#512,1.);
#117=VECTOR('',#515,1.);
#118=VECTOR('',#518,1.);
#119=VECTOR('',#523,1.);
#120=VECTOR('',#528,1.);
#121=VECTOR('',#535,1.);
#122=FACE_BOUND('',#146,.T.);
#123=FACE_BOUND('',#147,.T.);
#124=FACE_BOUND('',#148,.T.);
#125=FACE_BOUND('',#151,.T.);
#126=FACE_BOUND('',#152,.T.);
#127=FACE_BOUND('',#153,.T.);
#128=FACE_BOUND('',#154,.T.);
#129=FACE_BOUND('',#155,.T.);
#130=FACE_BOUND('',#158,.T.);
#131=FACE_BOUND('',#159,.T.);
#132=FACE_BOUND('',#160,.T.);
#133=FACE_BOUND('',#161,.T.);
#134=FACE_BOUND('',#164,.T.);
#135=FACE_BOUND('',#165,.T.);
#136=FACE_BOUND('',#166,.T.);
#137=FACE_BOUND('',#32,.T.);
#138=FACE_BOUND('',#167,.T.);
#139=FACE_BOUND('',#168,.T.);
#140=FACE_BOUND('',#169,.T.);
#141=FACE_BOUND('',#170,.T.);
#142=FACE_BOUND('',#177,.T.);
#143=FACE_BOUND('',#178,.T.);
#144=FACE_BOUND('',#179,.T.);
#145=FACE_BOUND('',#180,.T.);
#146=EDGE_LOOP('',(#182));
#147=EDGE_LOOP('',(#183));
#148=EDGE_LOOP('',(#184,#185));
#149=EDGE_LOOP('',(#186,#187,#188,#189));
#150=EDGE_LOOP('',(#190,#191,#192,#193));
#151=EDGE_LOOP('',(#194));
#152=EDGE_LOOP('',(#195));
#153=EDGE_LOOP('',(#196,#197));
#154=EDGE_LOOP('',(#198));
#155=EDGE_LOOP('',(#199,#200,#201,#202));
#156=EDGE_LOOP('',(#203,#204));
#157=EDGE_LOOP('',(#205));
#158=EDGE_LOOP('',(#206));
#159=EDGE_LOOP('',(#207));
#160=EDGE_LOOP('',(#208));
#161=EDGE_LOOP('',(#209));
#162=EDGE_LOOP('',(#210,#211));
#163=EDGE_LOOP('',(#212,#213,#214,#215));
#164=EDGE_LOOP('',(#216));
#165=EDGE_LOOP('',(#217));
#166=EDGE_LOOP('',(#218));
#167=EDGE_LOOP('',(#219));
#168=EDGE_LOOP('',(#220));
#169=EDGE_LOOP('',(#221,#222,#223,#224,#225,#226));
#170=EDGE_LOOP('',(#227));
#171=EDGE_LOOP('',(#228,#229,#230,#231));
#172=EDGE_LOOP('',(#232,#233,#234,#235));
#173=EDGE_LOOP('',(#236,#237,#238,#239));
#174=EDGE_LOOP('',(#240,#241,#242,#243));
#175=EDGE_LOOP('',(#244,#245,#246,#247));
#176=EDGE_LOOP('',(#248,#249,#250,#251));
#177=EDGE_LOOP('',(#252));
#178=EDGE_LOOP('',(#253,#254,#255,#256,#257,#258));
#179=EDGE_LOOP('',(#259));
#180=EDGE_LOOP('',(#260));
#181=EDGE_LOOP('',(#261));
#182=ORIENTED_EDGE('',*,*,#293,.F.);
#183=ORIENTED_EDGE('',*,*,#294,.F.);
#184=ORIENTED_EDGE('',*,*,#295,.F.);
#185=ORIENTED_EDGE('',*,*,#296,.F.);
#186=ORIENTED_EDGE('',*,*,#297,.T.);
#187=ORIENTED_EDGE('',*,*,#295,.T.);
#188=ORIENTED_EDGE('',*,*,#298,.T.);
#189=ORIENTED_EDGE('',*,*,#299,.T.);
#190=ORIENTED_EDGE('',*,*,#298,.F.);
#191=ORIENTED_EDGE('',*,*,#296,.T.);
#192=ORIENTED_EDGE('',*,*,#297,.F.);
#193=ORIENTED_EDGE('',*,*,#300,.F.);
#194=ORIENTED_EDGE('',*,*,#301,.F.);
#195=ORIENTED_EDGE('',*,*,#302,.F.);
#196=ORIENTED_EDGE('',*,*,#299,.F.);
#197=ORIENTED_EDGE('',*,*,#300,.T.);
#198=ORIENTED_EDGE('',*,*,#301,.T.);
#199=ORIENTED_EDGE('',*,*,#303,.T.);
#200=ORIENTED_EDGE('',*,*,#304,.F.);
#201=ORIENTED_EDGE('',*,*,#305,.F.);
#202=ORIENTED_EDGE('',*,*,#306,.T.);
#203=ORIENTED_EDGE('',*,*,#304,.T.);
#204=ORIENTED_EDGE('',*,*,#307,.T.);
#205=ORIENTED_EDGE('',*,*,#308,.T.);
#206=ORIENTED_EDGE('',*,*,#308,.F.);
#207=ORIENTED_EDGE('',*,*,#309,.T.);
#208=ORIENTED_EDGE('',*,*,#302,.T.);
#209=ORIENTED_EDGE('',*,*,#309,.F.);
#210=ORIENTED_EDGE('',*,*,#310,.F.);
#211=ORIENTED_EDGE('',*,*,#306,.F.);
#212=ORIENTED_EDGE('',*,*,#303,.F.);
#213=ORIENTED_EDGE('',*,*,#310,.T.);
#214=ORIENTED_EDGE('',*,*,#305,.T.);
#215=ORIENTED_EDGE('',*,*,#307,.F.);
#216=ORIENTED_EDGE('',*,*,#294,.T.);
#217=ORIENTED_EDGE('',*,*,#311,.T.);
#218=ORIENTED_EDGE('',*,*,#311,.F.);
#219=ORIENTED_EDGE('',*,*,#293,.T.);
#220=ORIENTED_EDGE('',*,*,#312,.F.);
#221=ORIENTED_EDGE('',*,*,#313,.F.);
#222=ORIENTED_EDGE('',*,*,#314,.F.);
#223=ORIENTED_EDGE('',*,*,#315,.F.);
#224=ORIENTED_EDGE('',*,*,#316,.F.);
#225=ORIENTED_EDGE('',*,*,#317,.F.);
#226=ORIENTED_EDGE('',*,*,#318,.F.);
#227=ORIENTED_EDGE('',*,*,#312,.T.);
#228=ORIENTED_EDGE('',*,*,#318,.T.);
#229=ORIENTED_EDGE('',*,*,#319,.F.);
#230=ORIENTED_EDGE('',*,*,#320,.F.);
#231=ORIENTED_EDGE('',*,*,#321,.T.);
#232=ORIENTED_EDGE('',*,*,#317,.T.);
#233=ORIENTED_EDGE('',*,*,#322,.F.);
#234=ORIENTED_EDGE('',*,*,#323,.F.);
#235=ORIENTED_EDGE('',*,*,#319,.T.);
#236=ORIENTED_EDGE('',*,*,#316,.T.);
#237=ORIENTED_EDGE('',*,*,#324,.F.);
#238=ORIENTED_EDGE('',*,*,#325,.F.);
#239=ORIENTED_EDGE('',*,*,#322,.T.);
#240=ORIENTED_EDGE('',*,*,#315,.T.);
#241=ORIENTED_EDGE('',*,*,#326,.F.);
#242=ORIENTED_EDGE('',*,*,#327,.F.);
#243=ORIENTED_EDGE('',*,*,#324,.T.);
#244=ORIENTED_EDGE('',*,*,#328,.F.);
#245=ORIENTED_EDGE('',*,*,#326,.T.);
#246=ORIENTED_EDGE('',*,*,#314,.T.);
#247=ORIENTED_EDGE('',*,*,#329,.F.);
#248=ORIENTED_EDGE('',*,*,#313,.T.);
#249=ORIENTED_EDGE('',*,*,#321,.F.);
#250=ORIENTED_EDGE('',*,*,#330,.F.);
#251=ORIENTED_EDGE('',*,*,#329,.T.);
#252=ORIENTED_EDGE('',*,*,#331,.F.);
#253=ORIENTED_EDGE('',*,*,#330,.T.);
#254=ORIENTED_EDGE('',*,*,#320,.T.);
#255=ORIENTED_EDGE('',*,*,#323,.T.);
#256=ORIENTED_EDGE('',*,*,#325,.T.);
#257=ORIENTED_EDGE('',*,*,#327,.T.);
#258=ORIENTED_EDGE('',*,*,#328,.T.);
#259=ORIENTED_EDGE('',*,*,#331,.T.);
#260=ORIENTED_EDGE('',*,*,#332,.F.);
#261=ORIENTED_EDGE('',*,*,#332,.T.);
#262=VERTEX_POINT('',#557);
#263=VERTEX_POINT('',#559);
#264=VERTEX_POINT('',#561);
#265=VERTEX_POINT('',#562);
#266=VERTEX_POINT('',#566);
#267=VERTEX_POINT('',#568);
#268=VERTEX_POINT('',#574);
#269=VERTEX_POINT('',#576);
#270=VERTEX_POINT('',#579);
#271=VERTEX_POINT('',#580);
#272=VERTEX_POINT('',#582);
#273=VERTEX_POINT('',#584);
#274=VERTEX_POINT('',#590);
#275=VERTEX_POINT('',#593);
#276=VERTEX_POINT('',#600);
#277=VERTEX_POINT('',#602);
#278=VERTEX_POINT('',#605);
#279=VERTEX_POINT('',#608);
#280=VERTEX_POINT('',#609);
#281=VERTEX_POINT('',#611);
#282=VERTEX_POINT('',#613);
#283=VERTEX_POINT('',#615);
#284=VERTEX_POINT('',#617);
#285=VERTEX_POINT('',#621);
#286=VERTEX_POINT('',#623);
#287=VERTEX_POINT('',#627);
#288=VERTEX_POINT('',#631);
#289=VERTEX_POINT('',#635);
#290=VERTEX_POINT('',#639);
#291=VERTEX_POINT('',#645);
#292=VERTEX_POINT('',#648);
#293=EDGE_CURVE('',#262,#262,#333,.T.);
#294=EDGE_CURVE('',#263,#263,#334,.T.);
#295=EDGE_CURVE('',#264,#265,#335,.T.);
#296=EDGE_CURVE('',#265,#264,#94,.T.);
#297=EDGE_CURVE('',#266,#264,#95,.T.);
#298=EDGE_CURVE('',#265,#267,#96,.T.);
#299=EDGE_CURVE('',#267,#266,#336,.T.);
#300=EDGE_CURVE('',#267,#266,#97,.T.);
#301=EDGE_CURVE('',#268,#268,#337,.T.);
#302=EDGE_CURVE('',#269,#269,#338,.T.);
#303=EDGE_CURVE('',#270,#271,#98,.T.);
#304=EDGE_CURVE('',#272,#271,#339,.T.);
#305=EDGE_CURVE('',#273,#272,#99,.T.);
#306=EDGE_CURVE('',#273,#270,#340,.T.);
#307=EDGE_CURVE('',#271,#272,#100,.T.);
#308=EDGE_CURVE('',#274,#274,#341,.T.);
#309=EDGE_CURVE('',#275,#275,#342,.T.);
#310=EDGE_CURVE('',#270,#273,#101,.T.);
#311=EDGE_CURVE('',#276,#276,#343,.T.);
#312=EDGE_CURVE('',#278,#278,#344,.T.);
#313=EDGE_CURVE('',#279,#280,#345,.T.);
#314=EDGE_CURVE('',#281,#279,#346,.T.);
#315=EDGE_CURVE('',#282,#281,#347,.T.);
#316=EDGE_CURVE('',#283,#282,#348,.T.);
#317=EDGE_CURVE('',#284,#283,#349,.T.);
#318=EDGE_CURVE('',#280,#284,#350,.T.);
#319=EDGE_CURVE('',#285,#284,#102,.T.);
#320=EDGE_CURVE('',#286,#285,#351,.T.);
#321=EDGE_CURVE('',#286,#280,#103,.T.);
#322=EDGE_CURVE('',#287,#283,#104,.T.);
#323=EDGE_CURVE('',#285,#287,#352,.T.);
#324=EDGE_CURVE('',#288,#282,#105,.T.);
#325=EDGE_CURVE('',#287,#288,#353,.T.);
#326=EDGE_CURVE('',#289,#281,#106,.T.);
#327=EDGE_CURVE('',#288,#289,#354,.T.);
#328=EDGE_CURVE('',#289,#290,#355,.T.);
#329=EDGE_CURVE('',#290,#279,#107,.T.);
#330=EDGE_CURVE('',#290,#286,#356,.T.);
#331=EDGE_CURVE('',#291,#291,#357,.T.);
#332=EDGE_CURVE('',#292,#292,#358,.T.);
#333=CIRCLE('',#380,20.);
#334=CIRCLE('',#381,2.);
#335=CIRCLE('',#382,41.5);
#336=CIRCLE('',#384,41.5);
#337=CIRCLE('',#387,19.996);
#338=CIRCLE('',#388,7.58410026918969);
#339=CIRCLE('',#390,19.996);
#340=CIRCLE('',#391,19.996);
#341=CIRCLE('',#394,7.00675000000006);
#342=CIRCLE('',#396,7.00675000000006);
#343=CIRCLE('',#401,2.);
#344=CIRCLE('',#404,20.);
#345=CIRCLE('',#406,8.5);
#346=CIRCLE('',#407,20.);
#347=CIRCLE('',#408,8.5);
#348=CIRCLE('',#409,20.);
#349=CIRCLE('',#410,8.5);
#350=CIRCLE('',#411,20.);
#351=CIRCLE('',#413,19.3970364630094);
#352=CIRCLE('',#415,7.89703646300946);
#353=CIRCLE('',#417,19.3970364630094);
#354=CIRCLE('',#419,7.89703646300946);
#355=CIRCLE('',#421,19.3970364630094);
#356=CIRCLE('',#423,7.89703646300946);
#357=CIRCLE('',#425,7.);
#358=CIRCLE('',#427,7.);
#359=PRESENTATION_LAYER_ASSIGNMENT('1','Layer 1',(#377,#378,#379,#30));
#360=STYLED_ITEM('',(#364),#377);
#361=STYLED_ITEM('',(#365),#378);
#362=STYLED_ITEM('',(#366),#379);
#363=STYLED_ITEM('',(#367),#30);
#364=PRESENTATION_STYLE_ASSIGNMENT((#368));
#365=PRESENTATION_STYLE_ASSIGNMENT((#369));
#366=PRESENTATION_STYLE_ASSIGNMENT((#370));
#367=PRESENTATION_STYLE_ASSIGNMENT((#25));
#368=CURVE_STYLE('',#373,POSITIVE_LENGTH_MEASURE(0.13),#371);
#369=CURVE_STYLE('',#374,POSITIVE_LENGTH_MEASURE(0.13),#371);
#370=CURVE_STYLE('',#375,POSITIVE_LENGTH_MEASURE(0.13),#371);
#371=COLOUR_RGB('Pale Sky',0.882337682154574,0.960769054703594,1.);
#372=COLOUR_RGB('Medium Gray',0.490196078431373,0.490196078431373,0.490196078431373);
#373=DRAUGHTING_PRE_DEFINED_CURVE_FONT('continuous');
#374=DRAUGHTING_PRE_DEFINED_CURVE_FONT('continuous');
#375=DRAUGHTING_PRE_DEFINED_CURVE_FONT('continuous');
#376=AXIS2_PLACEMENT_3D('',#552,#430,#431);
#377=AXIS2_PLACEMENT_3D('CSW',#553,#432,#433);
#378=AXIS2_PLACEMENT_3D('PCS',#554,#434,#435);
#379=AXIS2_PLACEMENT_3D('MCS',#555,#436,#437);
#380=AXIS2_PLACEMENT_3D('',#556,#438,#439);
#381=AXIS2_PLACEMENT_3D('',#558,#440,#441);
#382=AXIS2_PLACEMENT_3D('',#560,#442,#443);
#383=AXIS2_PLACEMENT_3D('',#564,#445,#446);
#384=AXIS2_PLACEMENT_3D('',#569,#449,#450);
#385=AXIS2_PLACEMENT_3D('',#570,#451,#452);
#386=AXIS2_PLACEMENT_3D('',#572,#454,#455);
#387=AXIS2_PLACEMENT_3D('',#573,#456,#457);
#388=AXIS2_PLACEMENT_3D('',#575,#458,#459);
#389=AXIS2_PLACEMENT_3D('',#577,#460,#461);
#390=AXIS2_PLACEMENT_3D('',#581,#463,#464);
#391=AXIS2_PLACEMENT_3D('',#585,#466,#467);
#392=AXIS2_PLACEMENT_3D('',#586,#468,#469);
#393=AXIS2_PLACEMENT_3D('',#588,#471,#472);
#394=AXIS2_PLACEMENT_3D('',#589,#473,#474);
#395=AXIS2_PLACEMENT_3D('',#591,#475,#476);
#396=AXIS2_PLACEMENT_3D('',#592,#477,#478);
#397=AXIS2_PLACEMENT_3D('',#594,#479,#480);
#398=AXIS2_PLACEMENT_3D('',#595,#481,#482);
#399=AXIS2_PLACEMENT_3D('',#597,#484,#485);
#400=AXIS2_PLACEMENT_3D('',#598,#486,#487);
#401=AXIS2_PLACEMENT_3D('',#599,#488,#489);
#402=AXIS2_PLACEMENT_3D('',#601,#490,#491);
#403=AXIS2_PLACEMENT_3D('',#603,#492,#493);
#404=AXIS2_PLACEMENT_3D('',#604,#494,#495);
#405=AXIS2_PLACEMENT_3D('',#606,#496,#497);
#406=AXIS2_PLACEMENT_3D('',#607,#498,#499);
#407=AXIS2_PLACEMENT_3D('',#610,#500,#501);
#408=AXIS2_PLACEMENT_3D('',#612,#502,#503);
#409=AXIS2_PLACEMENT_3D('',#614,#504,#505);
#410=AXIS2_PLACEMENT_3D('',#616,#506,#507);
#411=AXIS2_PLACEMENT_3D('',#618,#508,#509);
#412=AXIS2_PLACEMENT_3D('',#619,#510,#511);
#413=AXIS2_PLACEMENT_3D('',#622,#513,#514);
#414=AXIS2_PLACEMENT_3D('',#625,#516,#517);
#415=AXIS2_PLACEMENT_3D('',#628,#519,#520);
#416=AXIS2_PLACEMENT_3D('',#629,#521,#522);
#417=AXIS2_PLACEMENT_3D('',#632,#524,#525);
#418=AXIS2_PLACEMENT_3D('',#633,#526,#527);
#419=AXIS2_PLACEMENT_3D('',#636,#529,#530);
#420=AXIS2_PLACEMENT_3D('',#637,#531,#532);
#421=AXIS2_PLACEMENT_3D('',#638,#533,#534);
#422=AXIS2_PLACEMENT_3D('',#641,#536,#537);
#423=AXIS2_PLACEMENT_3D('',#642,#538,#539);
#424=AXIS2_PLACEMENT_3D('',#643,#540,#541);
#425=AXIS2_PLACEMENT_3D('',#644,#542,#543);
#426=AXIS2_PLACEMENT_3D('',#646,#544,#545);
#427=AXIS2_PLACEMENT_3D('',#647,#546,#547);
#428=AXIS2_PLACEMENT_3D('',#649,#548,#549);
#429=AXIS2_PLACEMENT_3D('',#650,#550,#551);
#430=DIRECTION('',(0.,0.,1.));
#431=DIRECTION('',(1.,0.,0.));
#432=DIRECTION('',(0.,0.,1.));
#433=DIRECTION('',(1.,0.,0.));
#434=DIRECTION('',(0.,0.,1.));
#435=DIRECTION('',(1.,0.,0.));
#436=DIRECTION('',(0.,0.,1.));
#437=DIRECTION('',(1.,0.,0.));
#438=DIRECTION('',(0.,0.,-1.));
#439=DIRECTION('',(-1.,0.,0.));
#440=DIRECTION('',(0.,0.,-1.));
#441=DIRECTION('',(-1.,0.,0.));
#442=DIRECTION('',(0.,0.,1.));
#443=DIRECTION('',(-1.,0.,0.));
#444=DIRECTION('',(-1.,0.,0.));
#445=DIRECTION('',(0.,0.,-1.));
#446=DIRECTION('',(-1.,0.,0.));
#447=DIRECTION('',(-1.10944129914572E-016,0.,-1.));
#448=DIRECTION('',(1.10944129914572E-016,0.,1.));
#449=DIRECTION('',(-1.10944129914572E-016,0.,-1.));
#450=DIRECTION('',(1.,0.,-1.10944129914572E-016));
#451=DIRECTION('',(-1.10944129914572E-016,0.,-1.));
#452=DIRECTION('',(1.,0.,-1.10944129914572E-016));
#453=DIRECTION('',(-1.,0.,1.10944129914572E-016));
#454=DIRECTION('',(0.,1.,0.));
#455=DIRECTION('',(0.,0.,1.));
#456=DIRECTION('',(1.10944129914572E-016,0.,1.));
#457=DIRECTION('',(1.,0.,-1.10944129914572E-016));
#458=DIRECTION('',(-4.2632564145606E-015,-1.8947806286936E-015,1.));
#459=DIRECTION('',(1.,0.,4.2632564145606E-015));
#460=DIRECTION('',(1.10944129914572E-016,0.,1.));
#461=DIRECTION('',(-1.,0.,1.10944129914572E-016));
#462=DIRECTION('',(0.,0.,1.));
#463=DIRECTION('',(0.,0.,1.));
#464=DIRECTION('',(6.12323399573677E-017,1.,0.));
#465=DIRECTION('',(0.,0.,1.));
#466=DIRECTION('',(0.,0.,-1.));
#467=DIRECTION('',(-1.,0.,0.));
#468=DIRECTION('',(0.,0.,-1.));
#469=DIRECTION('',(1.,0.,0.));
#470=DIRECTION('',(-1.,0.,0.));
#471=DIRECTION('',(0.,0.,1.));
#472=DIRECTION('',(-1.,0.,0.));
#473=DIRECTION('',(-4.2632564145606E-015,-1.8947806286936E-015,1.));
#474=DIRECTION('',(1.,0.,4.20884134464701E-015));
#475=DIRECTION('',(-4.2632564145606E-015,-1.8947806286936E-015,1.));
#476=DIRECTION('',(-1.,0.,-4.263082942213E-015));
#477=DIRECTION('',(-4.2632564145606E-015,-1.8947806286936E-015,1.));
#478=DIRECTION('',(1.,0.,4.27073607030359E-015));
#479=DIRECTION('',(-4.2632564145606E-015,-1.8947806286936E-015,1.));
#480=DIRECTION('',(-1.,0.,-4.20884134464701E-015));
#481=DIRECTION('',(-4.2632564145606E-015,-1.8947806286936E-015,1.));
#482=DIRECTION('',(-1.,0.,-4.18127606185294E-015));
#483=DIRECTION('',(-1.,0.,0.));
#484=DIRECTION('',(0.,0.,-1.));
#485=DIRECTION('',(1.,0.,0.));
#486=DIRECTION('',(0.,1.,0.));
#487=DIRECTION('',(0.,0.,1.));
#488=DIRECTION('',(0.,0.,1.));
#489=DIRECTION('',(1.,0.,0.));
#490=DIRECTION('',(0.,0.,1.));
#491=DIRECTION('',(1.,0.,0.));
#492=DIRECTION('',(0.,0.,-1.));
#493=DIRECTION('',(-1.,0.,3.235659366517E-017));
#494=DIRECTION('',(0.,0.,-1.));
#495=DIRECTION('',(0.,-1.,0.));
#496=DIRECTION('',(0.,0.,-1.));
#497=DIRECTION('',(0.,1.,0.));
#498=DIRECTION('',(0.,0.,-1.));
#499=DIRECTION('',(-1.,0.,0.));
#500=DIRECTION('',(0.,0.,-1.));
#501=DIRECTION('',(-1.,0.,0.));
#502=DIRECTION('',(0.,0.,-1.));
#503=DIRECTION('',(-1.,0.,0.));
#504=DIRECTION('',(0.,0.,-1.));
#505=DIRECTION('',(-1.,0.,0.));
#506=DIRECTION('',(0.,0.,-1.));
#507=DIRECTION('',(-1.,0.,0.));
#508=DIRECTION('',(0.,0.,-1.));
#509=DIRECTION('',(-1.,0.,0.));
#510=DIRECTION('',(0.,0.,-1.));
#511=DIRECTION('',(0.,1.,0.));
#512=DIRECTION('',(-0.0130940393650178,0.0214321549869783,-0.999684554679986));
#513=DIRECTION('',(0.,0.,-1.));
#514=DIRECTION('',(-1.,0.,0.));
#515=DIRECTION('',(-0.0251112246842899,0.000466400186113526,-0.999684554679986));
#516=DIRECTION('',(0.,0.,-1.));
#517=DIRECTION('',(1.,0.,-3.84439198563774E-016));
#518=DIRECTION('',(0.0129628683279737,0.0215117451405068,-0.999684554679986));
#519=DIRECTION('',(0.,0.,-1.));
#520=DIRECTION('',(-1.,0.,0.));
#521=DIRECTION('',(0.,0.,-1.));
#522=DIRECTION('',(1.,0.,-5.15926203787462E-016));
#523=DIRECTION('',(0.0251111519354021,0.000470300707684483,-0.999684554679986));
#524=DIRECTION('',(0.,0.,-1.));
#525=DIRECTION('',(-1.,0.,0.));
#526=DIRECTION('',(0.,0.,-1.));
#527=DIRECTION('',(1.,0.,-3.84439198563774E-016));
#528=DIRECTION('',(0.0120137709940597,-0.0220558482217481,-0.999684554679986));
#529=DIRECTION('',(0.,0.,-1.));
#530=DIRECTION('',(-1.,0.,0.));
#531=DIRECTION('',(0.,0.,-1.));
#532=DIRECTION('',(1.,0.,-5.15926203787462E-016));
#533=DIRECTION('',(0.,0.,-1.));
#534=DIRECTION('',(-1.,0.,0.));
#535=DIRECTION('',(-0.0121516979326409,-0.0219801585897907,-0.999684554679986));
#536=DIRECTION('',(0.,0.,-1.));
#537=DIRECTION('',(1.,0.,-3.84439198563774E-016));
#538=DIRECTION('',(0.,0.,-1.));
#539=DIRECTION('',(-1.,0.,0.));
#540=DIRECTION('',(0.,0.,-1.));
#541=DIRECTION('',(1.,0.,-5.15926203787462E-016));
#542=DIRECTION('',(0.,0.,-1.));
#543=DIRECTION('',(-1.,0.,0.));
#544=DIRECTION('',(0.,0.,-1.));
#545=DIRECTION('',(1.,0.,0.));
#546=DIRECTION('',(0.,0.,-1.));
#547=DIRECTION('',(-1.,0.,0.));
#548=DIRECTION('',(0.,0.,-1.));
#549=DIRECTION('',(1.,0.,0.));
#550=DIRECTION('',(0.,0.,-1.));
#551=DIRECTION('',(1.,0.,0.));
#552=CARTESIAN_POINT('',(0.,0.,0.));
#553=CARTESIAN_POINT('',(0.,0.,-30.));
#554=CARTESIAN_POINT('',(0.,0.,0.));
#555=CARTESIAN_POINT('',(0.,0.,0.));
#556=CARTESIAN_POINT('',(3.5527136788005E-015,-2.04088517576365E-015,-25.));
#557=CARTESIAN_POINT('',(-20.,-2.04088517576365E-015,-25.));
#558=CARTESIAN_POINT('',(6.67427020641199E-032,-23.,-25.));
#559=CARTESIAN_POINT('',(-2.,-23.,-25.));
#560=CARTESIAN_POINT('',(7.791104309362E-016,0.,-25.));
#561=CARTESIAN_POINT('',(-25.8069758011279,32.5,-25.));
#562=CARTESIAN_POINT('',(25.8069758011279,32.5,-25.));
#563=CARTESIAN_POINT('',(0.,32.5,-25.));
#564=CARTESIAN_POINT('',(5.55220953879699E-015,-4.25,-25.));
#565=CARTESIAN_POINT('',(-25.8069758011279,32.5,2.86313247598255E-015));
#566=CARTESIAN_POINT('',(-25.8069758011279,32.5,-1.68557685051491E-015));
#567=CARTESIAN_POINT('',(25.8069758011279,32.5,-2.86313247598255E-015));
#568=CARTESIAN_POINT('',(25.8069758011279,32.5,-7.41184180248E-015));
#569=CARTESIAN_POINT('',(3.5527136788005E-015,0.,-4.54870932649745E-015));
#570=CARTESIAN_POINT('',(3.5527136788005E-015,0.,0.));
#571=CARTESIAN_POINT('',(-41.,32.5,0.));
#572=CARTESIAN_POINT('',(0.,32.5,0.));
#573=CARTESIAN_POINT('',(3.5527136788005E-015,2.2655965784226E-016,0.));
#574=CARTESIAN_POINT('',(19.996,2.2655965784226E-016,-2.21843882177178E-015));
#575=CARTESIAN_POINT('',(16.0000000000001,-27.712812921102,0.));
#576=CARTESIAN_POINT('',(23.5841002691898,-27.712812921102,3.23329641212937E-014));
#577=CARTESIAN_POINT('',(-41.,0.,0.));
#578=CARTESIAN_POINT('',(11.9879939939925,16.004,7.00000000000001));
#579=CARTESIAN_POINT('',(11.9879939939925,16.004,7.00000000000001));
#580=CARTESIAN_POINT('',(11.9879939939925,16.004,63.));
#581=CARTESIAN_POINT('',(3.5527136788005E-015,2.2655965784226E-016,63.));
#582=CARTESIAN_POINT('',(-11.9879939939925,16.004,63.));
#583=CARTESIAN_POINT('',(-11.9879939939925,16.004,7.00000000000001));
#584=CARTESIAN_POINT('',(-11.9879939939925,16.004,7.00000000000001));
#585=CARTESIAN_POINT('',(3.5527136788005E-015,2.2655965784226E-016,7.00000000000001));
#586=CARTESIAN_POINT('',(3.5527136788005E-015,2.2655965784226E-016,63.));
#587=CARTESIAN_POINT('',(3.5527136788005E-015,16.004,63.));
#588=CARTESIAN_POINT('',(3.5527136788005E-015,2.2655965784226E-016,63.));
#589=CARTESIAN_POINT('',(16.0000000000001,-27.712812921102,-7.49999999999999));
#590=CARTESIAN_POINT('',(23.0067500000002,-27.712812921102,-7.49999999999996));
#591=CARTESIAN_POINT('',(16.0000000000001,-27.712812921102,-7.49999999999999));
#592=CARTESIAN_POINT('',(16.0000000000001,-27.712812921102,-1.));
#593=CARTESIAN_POINT('',(23.0067500000002,-27.712812921102,-0.99999999999997));
#594=CARTESIAN_POINT('',(16.0000000000001,-27.712812921102,-7.49999999999999));
#595=CARTESIAN_POINT('',(16.0000000000001,-27.712812921102,-1.));
#596=CARTESIAN_POINT('',(11.9879939939925,16.004,7.00000000000001));
#597=CARTESIAN_POINT('',(11.9879939939925,16.004,7.00000000000001));
#598=CARTESIAN_POINT('',(11.9879939939925,16.004,7.00000000000001));
#599=CARTESIAN_POINT('',(6.67427020641199E-032,-23.,-24.3));
#600=CARTESIAN_POINT('',(2.,-23.,-24.3));
#601=CARTESIAN_POINT('',(6.67427020641199E-032,-23.,-34.3));
#602=CARTESIAN_POINT('',(6.67427020641199E-032,-23.,-23.36738468369));
#603=CARTESIAN_POINT('',(6.67427020641199E-032,-23.,-23.36738468369));
#604=CARTESIAN_POINT('',(3.5527136788005E-015,-2.04088517576365E-015,-30.));
#605=CARTESIAN_POINT('',(3.5527136788005E-015,-20.,-30.));
#606=CARTESIAN_POINT('',(3.5527136788005E-015,-2.04088517576365E-015,31.));
#607=CARTESIAN_POINT('',(-5.54256258422041,-3.2,-30.));
#608=CARTESIAN_POINT('',(-9.65513066655617,-10.6388697910471,-30.));
#609=CARTESIAN_POINT('',(-14.0410968398797,-3.04215353857228,-30.));
#610=CARTESIAN_POINT('',(0.0215001154103409,6.86435324671078,-30.));
#611=CARTESIAN_POINT('',(9.58829702338366,-10.6991429007421,-30.));
#612=CARTESIAN_POINT('',(5.522408337495,-3.23465703807463,-30.));
#613=CARTESIAN_POINT('',(14.0209179723354,-3.07549050099937,-30.));
#614=CARTESIAN_POINT('',(-5.97557528611263,-3.45,-30.));
#615=CARTESIAN_POINT('',(4.34700608320455,13.6802163989199,-30.));
#616=CARTESIAN_POINT('',(-0.0400909987552481,6.39987442937897,-30.));
#617=CARTESIAN_POINT('',(-4.47158103907076,13.653280251652,-30.));
#618=CARTESIAN_POINT('',(5.95545434990689,-3.41355697722574,-30.));
#619=CARTESIAN_POINT('',(3.5527136788005E-015,-2.04088517576365E-015,-30.));
#620=CARTESIAN_POINT('',(-4.47158103907076,13.653280251652,-30.));
#621=CARTESIAN_POINT('',(-4.15722493214758,13.1387462246137,-6.00000000000002));
#622=CARTESIAN_POINT('',(5.95545434990689,-3.41355697722574,-6.00000000000002));
#623=CARTESIAN_POINT('',(-13.4382372782294,-3.05335067512333,-6.00000000000002));
#624=CARTESIAN_POINT('',(-14.0410968398797,-3.04215353857228,-30.));
#625=CARTESIAN_POINT('',(5.95545434990689,-3.41355697722574,-30.));
#626=CARTESIAN_POINT('',(4.34700608320455,13.6802163989199,-30.));
#627=CARTESIAN_POINT('',(4.03579907453875,13.1637716054546,-6.00000000000002));
#628=CARTESIAN_POINT('',(-0.0400909987552481,6.39987442937897,-6.00000000000002));
#629=CARTESIAN_POINT('',(-0.0400909987552481,6.39987442937897,-30.));
#630=CARTESIAN_POINT('',(14.0209179723354,-3.07549050099937,-30.));
#631=CARTESIAN_POINT('',(13.4180601572094,-3.08678127960707,-6.00000000000002));
#632=CARTESIAN_POINT('',(-5.97557528611263,-3.45,-6.00000000000002));
#633=CARTESIAN_POINT('',(-5.97557528611263,-3.45,-30.));
#634=CARTESIAN_POINT('',(9.58829702338366,-10.6991429007421,-30.));
#635=CARTESIAN_POINT('',(9.29987553831857,-10.1696355127927,-6.00000000000002));
#636=CARTESIAN_POINT('',(5.522408337495,-3.23465703807463,-6.00000000000002));
#637=CARTESIAN_POINT('',(5.522408337495,-3.23465703807463,-30.));
#638=CARTESIAN_POINT('',(0.0215001154103409,6.86435324671078,-6.00000000000002));
#639=CARTESIAN_POINT('',(-9.36339789043387,-10.1111795274681,-6.00000000000002));
#640=CARTESIAN_POINT('',(-9.65513066655617,-10.6388697910471,-30.));
#641=CARTESIAN_POINT('',(0.0215001154103409,6.86435324671078,-30.));
#642=CARTESIAN_POINT('',(-5.54256258422041,-3.2,-6.00000000000002));
#643=CARTESIAN_POINT('',(-5.54256258422041,-3.2,-30.));
#644=CARTESIAN_POINT('',(3.1190328098063E-015,-2.01378012145151E-015,-6.00000000000002));
#645=CARTESIAN_POINT('',(-7.,-2.01378012145151E-015,-6.00000000000002));
#646=CARTESIAN_POINT('',(2.95768167557582,1.49315872607661,-6.00000000000002));
#647=CARTESIAN_POINT('',(3.1190328098063E-015,-2.04088517576365E-015,-34.5));
#648=CARTESIAN_POINT('',(-7.,-2.04088517576365E-015,-34.5));
#649=CARTESIAN_POINT('',(3.1190328098063E-015,-2.01378012145151E-015,-6.00000000000002));
#650=CARTESIAN_POINT('',(3.1190328098063E-015,-2.04088517576365E-015,-34.5));
#651=MECHANICAL_DESIGN_GEOMETRIC_PRESENTATION_REPRESENTATION('',(#360,#361,
#362,#363),#652);
#652=(
GEOMETRIC_REPRESENTATION_CONTEXT(3)
GLOBAL_UNCERTAINTY_ASSIGNED_CONTEXT((#653))
GLOBAL_UNIT_ASSIGNED_CONTEXT((#659,#655,#654))
REPRESENTATION_CONTEXT('1513938498060','TOP_LEVEL_ASSEMBLY_PART')
);
#653=UNCERTAINTY_MEASURE_WITH_UNIT(LENGTH_MEASURE(2.E-005),#659,
'DISTANCE_ACCURACY_VALUE','Maximum Tolerance applied to model');
#654=(
NAMED_UNIT(*)
SI_UNIT($,.STERADIAN.)
SOLID_ANGLE_UNIT()
);
#655=(
CONVERSION_BASED_UNIT('DEGREE',#657)
NAMED_UNIT(#656)
PLANE_ANGLE_UNIT()
);
#656=DIMENSIONAL_EXPONENTS(0.,0.,0.,0.,0.,0.,0.);
#657=PLANE_ANGLE_MEASURE_WITH_UNIT(PLANE_ANGLE_MEASURE(0.0174532925),#658);
#658=(
NAMED_UNIT(*)
PLANE_ANGLE_UNIT()
SI_UNIT($,.RADIAN.)
);
#659=(
LENGTH_UNIT()
NAMED_UNIT(*)
SI_UNIT(.MILLI.,.METRE.)
);
ENDSEC;
END-ISO-10303-21;
