ISO-10303-21;
HEADER;
/* Generated by software containing ST-Developer
 * from STEP Tools, Inc. (www.steptools.com) 
 */
/* OPTION: using custom schema-name function */

FILE_DESCRIPTION(
/* description */ (''),
/* implementation_level */ '2;1');

FILE_NAME(
/* name */ '1551360717957.stp',
/* time_stamp */ '2019-02-28T14:32:14+01:00',
/* author */ (''),
/* organization */ ('SMS'),
/* preprocessor_version */ 'ST-DEVELOPER v15',
/* originating_system */ 'SIEMENS PLM Software NX 8.5',
/* authorisation */ '');

FILE_SCHEMA (('AUTOMOTIVE_DESIGN { 1 0 10303 214 3 1 1 1 }'));
ENDSEC;

DATA;
#10=CONSTRUCTIVE_GEOMETRY_REPRESENTATION_RELATIONSHIP(
'supplemental geometry','',#26,#11);
#11=CONSTRUCTIVE_GEOMETRY_REPRESENTATION('supplemental geometry',(#388,
#389,#390),#611);
#12=GEOMETRICALLY_BOUNDED_WIREFRAME_SHAPE_REPRESENTATION(
'111169707mod000_01-None',(#27),#611);
#13=SHAPE_REPRESENTATION_RELATIONSHIP('None',
'relationship between 111169707mod000_01-None and 111169707mod000_01-N
one',#26,#15);
#14=SHAPE_REPRESENTATION_RELATIONSHIP('None',
'relationship between 111169707mod000_01-None and 111169707mod000_01-N
one',#26,#12);
#15=ADVANCED_BREP_SHAPE_REPRESENTATION('111169707mod000_01-None',(#33),
#611);
#16=SHAPE_DEFINITION_REPRESENTATION(#17,#26);
#17=PRODUCT_DEFINITION_SHAPE('','',#18);
#18=PRODUCT_DEFINITION(' ','',#20,#19);
#19=PRODUCT_DEFINITION_CONTEXT('part definition',#25,'design');
#20=PRODUCT_DEFINITION_FORMATION_WITH_SPECIFIED_SOURCE(' ',' ',#22,
 .NOT_KNOWN.);
#21=PRODUCT_RELATED_PRODUCT_CATEGORY('part','',(#22));
#22=PRODUCT('111169707mod000_01','111169707mod000_01','NOCUT',(#23));
#23=PRODUCT_CONTEXT(' ',#25,'mechanical');
#24=APPLICATION_PROTOCOL_DEFINITION('international standard',
'automotive_design',2010,#25);
#25=APPLICATION_CONTEXT(
'core data for automotive mechanical design processes');
#26=SHAPE_REPRESENTATION('111169707mod000_01-None',(#387),#611);
#27=GEOMETRIC_CURVE_SET('None',(#512,#513,#514));
#28=SURFACE_STYLE_USAGE(.BOTH.,#29);
#29=SURFACE_SIDE_STYLE('',(#30));
#30=SURFACE_STYLE_FILL_AREA(#31);
#31=FILL_AREA_STYLE('',(#32));
#32=FILL_AREA_STYLE_COLOUR('',#386);
#33=MANIFOLD_SOLID_BREP('NOCUT',#34);
#34=CLOSED_SHELL('',(#51,#52,#53,#54,#55,#56,#57,#58,#59,#60,#61,#62,#63,
#64,#65,#66,#67,#68,#69));
#35=CYLINDRICAL_SURFACE('',#399,25.1);
#36=CYLINDRICAL_SURFACE('',#410,26.1000000000003);
#37=CYLINDRICAL_SURFACE('',#413,17.);
#38=FACE_BOUND('',#106,.T.);
#39=FACE_BOUND('',#107,.T.);
#40=FACE_BOUND('',#108,.T.);
#41=FACE_BOUND('',#109,.T.);
#42=FACE_BOUND('',#119,.T.);
#43=FACE_BOUND('',#120,.T.);
#44=FACE_BOUND('',#121,.T.);
#45=FACE_BOUND('',#122,.T.);
#46=CIRCLE('',#397,25.1);
#47=CIRCLE('',#398,25.1);
#48=CIRCLE('',#400,26.1000000000003);
#49=CIRCLE('',#411,17.);
#50=CIRCLE('',#412,17.);
#51=ADVANCED_FACE('',(#86),#70,.T.);
#52=ADVANCED_FACE('',(#87),#71,.T.);
#53=ADVANCED_FACE('',(#88),#72,.F.);
#54=ADVANCED_FACE('',(#89),#73,.F.);
#55=ADVANCED_FACE('',(#90),#74,.F.);
#56=ADVANCED_FACE('',(#38,#39),#35,.F.);
#57=ADVANCED_FACE('',(#40,#41),#75,.T.);
#58=ADVANCED_FACE('',(#91),#76,.F.);
#59=ADVANCED_FACE('',(#92),#77,.T.);
#60=ADVANCED_FACE('',(#93),#78,.F.);
#61=ADVANCED_FACE('',(#94),#79,.F.);
#62=ADVANCED_FACE('',(#95),#80,.T.);
#63=ADVANCED_FACE('',(#96),#81,.F.);
#64=ADVANCED_FACE('',(#97),#82,.T.);
#65=ADVANCED_FACE('',(#98),#83,.T.);
#66=ADVANCED_FACE('',(#99),#36,.T.);
#67=ADVANCED_FACE('',(#42,#43),#37,.F.);
#68=ADVANCED_FACE('',(#44,#45),#84,.F.);
#69=ADVANCED_FACE('',(#100),#85,.F.);
#70=PLANE('',#392);
#71=PLANE('',#393);
#72=PLANE('',#394);
#73=PLANE('',#395);
#74=PLANE('',#396);
#75=PLANE('',#401);
#76=PLANE('',#402);
#77=PLANE('',#403);
#78=PLANE('',#404);
#79=PLANE('',#405);
#80=PLANE('',#406);
#81=PLANE('',#407);
#82=PLANE('',#408);
#83=PLANE('',#409);
#84=PLANE('',#414);
#85=PLANE('',#415);
#86=FACE_OUTER_BOUND('',#101,.T.);
#87=FACE_OUTER_BOUND('',#102,.T.);
#88=FACE_OUTER_BOUND('',#103,.T.);
#89=FACE_OUTER_BOUND('',#104,.T.);
#90=FACE_OUTER_BOUND('',#105,.T.);
#91=FACE_OUTER_BOUND('',#110,.T.);
#92=FACE_OUTER_BOUND('',#111,.T.);
#93=FACE_OUTER_BOUND('',#112,.T.);
#94=FACE_OUTER_BOUND('',#113,.T.);
#95=FACE_OUTER_BOUND('',#114,.T.);
#96=FACE_OUTER_BOUND('',#115,.T.);
#97=FACE_OUTER_BOUND('',#116,.T.);
#98=FACE_OUTER_BOUND('',#117,.T.);
#99=FACE_OUTER_BOUND('',#118,.T.);
#100=FACE_OUTER_BOUND('',#123,.T.);
#101=EDGE_LOOP('',(#125,#126,#127,#128,#129,#130,#131));
#102=EDGE_LOOP('',(#132,#133,#134,#135,#136,#137,#138,#139,#140,#141,#142));
#103=EDGE_LOOP('',(#143,#144,#145,#146,#147));
#104=EDGE_LOOP('',(#148,#149,#150,#151));
#105=EDGE_LOOP('',(#152,#153,#154,#155));
#106=EDGE_LOOP('',(#156));
#107=EDGE_LOOP('',(#157));
#108=EDGE_LOOP('',(#158));
#109=EDGE_LOOP('',(#159,#160,#161,#162,#163,#164,#165,#166));
#110=EDGE_LOOP('',(#167,#168,#169,#170));
#111=EDGE_LOOP('',(#171,#172,#173,#174));
#112=EDGE_LOOP('',(#175,#176,#177,#178));
#113=EDGE_LOOP('',(#179,#180,#181,#182));
#114=EDGE_LOOP('',(#183,#184,#185,#186));
#115=EDGE_LOOP('',(#187,#188,#189,#190));
#116=EDGE_LOOP('',(#191,#192,#193,#194,#195,#196));
#117=EDGE_LOOP('',(#197,#198,#199,#200,#201));
#118=EDGE_LOOP('',(#202,#203,#204,#205));
#119=EDGE_LOOP('',(#206));
#120=EDGE_LOOP('',(#207));
#121=EDGE_LOOP('',(#208));
#122=EDGE_LOOP('',(#209));
#123=EDGE_LOOP('',(#210));
#124=ELLIPSE('',#391,125.534066397823,26.1000000000003);
#125=ORIENTED_EDGE('',*,*,#241,.F.);
#126=ORIENTED_EDGE('',*,*,#242,.T.);
#127=ORIENTED_EDGE('',*,*,#243,.T.);
#128=ORIENTED_EDGE('',*,*,#244,.T.);
#129=ORIENTED_EDGE('',*,*,#245,.T.);
#130=ORIENTED_EDGE('',*,*,#246,.F.);
#131=ORIENTED_EDGE('',*,*,#247,.T.);
#132=ORIENTED_EDGE('',*,*,#242,.F.);
#133=ORIENTED_EDGE('',*,*,#248,.T.);
#134=ORIENTED_EDGE('',*,*,#249,.T.);
#135=ORIENTED_EDGE('',*,*,#250,.T.);
#136=ORIENTED_EDGE('',*,*,#251,.F.);
#137=ORIENTED_EDGE('',*,*,#252,.T.);
#138=ORIENTED_EDGE('',*,*,#253,.F.);
#139=ORIENTED_EDGE('',*,*,#254,.T.);
#140=ORIENTED_EDGE('',*,*,#255,.T.);
#141=ORIENTED_EDGE('',*,*,#256,.T.);
#142=ORIENTED_EDGE('',*,*,#257,.F.);
#143=ORIENTED_EDGE('',*,*,#258,.F.);
#144=ORIENTED_EDGE('',*,*,#245,.F.);
#145=ORIENTED_EDGE('',*,*,#259,.T.);
#146=ORIENTED_EDGE('',*,*,#260,.T.);
#147=ORIENTED_EDGE('',*,*,#255,.F.);
#148=ORIENTED_EDGE('',*,*,#244,.F.);
#149=ORIENTED_EDGE('',*,*,#261,.T.);
#150=ORIENTED_EDGE('',*,*,#262,.T.);
#151=ORIENTED_EDGE('',*,*,#259,.F.);
#152=ORIENTED_EDGE('',*,*,#243,.F.);
#153=ORIENTED_EDGE('',*,*,#257,.T.);
#154=ORIENTED_EDGE('',*,*,#263,.T.);
#155=ORIENTED_EDGE('',*,*,#261,.F.);
#156=ORIENTED_EDGE('',*,*,#264,.F.);
#157=ORIENTED_EDGE('',*,*,#265,.T.);
#158=ORIENTED_EDGE('',*,*,#264,.T.);
#159=ORIENTED_EDGE('',*,*,#266,.T.);
#160=ORIENTED_EDGE('',*,*,#267,.T.);
#161=ORIENTED_EDGE('',*,*,#268,.T.);
#162=ORIENTED_EDGE('',*,*,#269,.F.);
#163=ORIENTED_EDGE('',*,*,#270,.F.);
#164=ORIENTED_EDGE('',*,*,#271,.T.);
#165=ORIENTED_EDGE('',*,*,#272,.F.);
#166=ORIENTED_EDGE('',*,*,#273,.T.);
#167=ORIENTED_EDGE('',*,*,#274,.T.);
#168=ORIENTED_EDGE('',*,*,#266,.F.);
#169=ORIENTED_EDGE('',*,*,#275,.F.);
#170=ORIENTED_EDGE('',*,*,#253,.T.);
#171=ORIENTED_EDGE('',*,*,#270,.T.);
#172=ORIENTED_EDGE('',*,*,#276,.T.);
#173=ORIENTED_EDGE('',*,*,#249,.F.);
#174=ORIENTED_EDGE('',*,*,#277,.T.);
#175=ORIENTED_EDGE('',*,*,#278,.T.);
#176=ORIENTED_EDGE('',*,*,#268,.F.);
#177=ORIENTED_EDGE('',*,*,#279,.T.);
#178=ORIENTED_EDGE('',*,*,#251,.T.);
#179=ORIENTED_EDGE('',*,*,#267,.F.);
#180=ORIENTED_EDGE('',*,*,#274,.F.);
#181=ORIENTED_EDGE('',*,*,#252,.F.);
#182=ORIENTED_EDGE('',*,*,#279,.F.);
#183=ORIENTED_EDGE('',*,*,#250,.F.);
#184=ORIENTED_EDGE('',*,*,#276,.F.);
#185=ORIENTED_EDGE('',*,*,#269,.T.);
#186=ORIENTED_EDGE('',*,*,#278,.F.);
#187=ORIENTED_EDGE('',*,*,#262,.F.);
#188=ORIENTED_EDGE('',*,*,#263,.F.);
#189=ORIENTED_EDGE('',*,*,#256,.F.);
#190=ORIENTED_EDGE('',*,*,#260,.F.);
#191=ORIENTED_EDGE('',*,*,#246,.T.);
#192=ORIENTED_EDGE('',*,*,#258,.T.);
#193=ORIENTED_EDGE('',*,*,#254,.F.);
#194=ORIENTED_EDGE('',*,*,#275,.T.);
#195=ORIENTED_EDGE('',*,*,#273,.F.);
#196=ORIENTED_EDGE('',*,*,#280,.T.);
#197=ORIENTED_EDGE('',*,*,#248,.F.);
#198=ORIENTED_EDGE('',*,*,#241,.T.);
#199=ORIENTED_EDGE('',*,*,#281,.F.);
#200=ORIENTED_EDGE('',*,*,#271,.F.);
#201=ORIENTED_EDGE('',*,*,#277,.F.);
#202=ORIENTED_EDGE('',*,*,#247,.F.);
#203=ORIENTED_EDGE('',*,*,#280,.F.);
#204=ORIENTED_EDGE('',*,*,#272,.T.);
#205=ORIENTED_EDGE('',*,*,#281,.T.);
#206=ORIENTED_EDGE('',*,*,#282,.F.);
#207=ORIENTED_EDGE('',*,*,#283,.F.);
#208=ORIENTED_EDGE('',*,*,#283,.T.);
#209=ORIENTED_EDGE('',*,*,#265,.F.);
#210=ORIENTED_EDGE('',*,*,#282,.T.);
#211=VERTEX_POINT('',#519);
#212=VERTEX_POINT('',#520);
#213=VERTEX_POINT('',#522);
#214=VERTEX_POINT('',#524);
#215=VERTEX_POINT('',#526);
#216=VERTEX_POINT('',#528);
#217=VERTEX_POINT('',#530);
#218=VERTEX_POINT('',#534);
#219=VERTEX_POINT('',#536);
#220=VERTEX_POINT('',#538);
#221=VERTEX_POINT('',#540);
#222=VERTEX_POINT('',#542);
#223=VERTEX_POINT('',#544);
#224=VERTEX_POINT('',#546);
#225=VERTEX_POINT('',#548);
#226=VERTEX_POINT('',#550);
#227=VERTEX_POINT('',#555);
#228=VERTEX_POINT('',#559);
#229=VERTEX_POINT('',#565);
#230=VERTEX_POINT('',#567);
#231=VERTEX_POINT('',#570);
#232=VERTEX_POINT('',#571);
#233=VERTEX_POINT('',#573);
#234=VERTEX_POINT('',#575);
#235=VERTEX_POINT('',#577);
#236=VERTEX_POINT('',#579);
#237=VERTEX_POINT('',#581);
#238=VERTEX_POINT('',#583);
#239=VERTEX_POINT('',#604);
#240=VERTEX_POINT('',#606);
#241=EDGE_CURVE('',#211,#212,#284,.T.);
#242=EDGE_CURVE('',#211,#213,#285,.T.);
#243=EDGE_CURVE('',#213,#214,#286,.T.);
#244=EDGE_CURVE('',#214,#215,#287,.T.);
#245=EDGE_CURVE('',#215,#216,#288,.T.);
#246=EDGE_CURVE('',#217,#216,#289,.T.);
#247=EDGE_CURVE('',#217,#212,#124,.T.);
#248=EDGE_CURVE('',#211,#218,#290,.T.);
#249=EDGE_CURVE('',#218,#219,#291,.T.);
#250=EDGE_CURVE('',#219,#220,#292,.T.);
#251=EDGE_CURVE('',#221,#220,#293,.T.);
#252=EDGE_CURVE('',#221,#222,#294,.T.);
#253=EDGE_CURVE('',#223,#222,#295,.T.);
#254=EDGE_CURVE('',#223,#224,#296,.T.);
#255=EDGE_CURVE('',#224,#225,#297,.T.);
#256=EDGE_CURVE('',#225,#226,#298,.T.);
#257=EDGE_CURVE('',#213,#226,#299,.T.);
#258=EDGE_CURVE('',#216,#224,#300,.T.);
#259=EDGE_CURVE('',#215,#227,#301,.T.);
#260=EDGE_CURVE('',#227,#225,#302,.T.);
#261=EDGE_CURVE('',#214,#228,#303,.T.);
#262=EDGE_CURVE('',#228,#227,#304,.T.);
#263=EDGE_CURVE('',#226,#228,#305,.T.);
#264=EDGE_CURVE('',#229,#229,#46,.T.);
#265=EDGE_CURVE('',#230,#230,#47,.T.);
#266=EDGE_CURVE('',#231,#232,#306,.T.);
#267=EDGE_CURVE('',#232,#233,#307,.T.);
#268=EDGE_CURVE('',#233,#234,#308,.T.);
#269=EDGE_CURVE('',#235,#234,#309,.T.);
#270=EDGE_CURVE('',#236,#235,#310,.T.);
#271=EDGE_CURVE('',#236,#237,#311,.T.);
#272=EDGE_CURVE('',#238,#237,#48,.T.);
#273=EDGE_CURVE('',#238,#231,#312,.T.);
#274=EDGE_CURVE('',#222,#232,#313,.T.);
#275=EDGE_CURVE('',#223,#231,#314,.T.);
#276=EDGE_CURVE('',#235,#219,#315,.T.);
#277=EDGE_CURVE('',#218,#236,#316,.T.);
#278=EDGE_CURVE('',#220,#234,#317,.T.);
#279=EDGE_CURVE('',#233,#221,#318,.T.);
#280=EDGE_CURVE('',#238,#217,#319,.T.);
#281=EDGE_CURVE('',#237,#212,#320,.T.);
#282=EDGE_CURVE('',#239,#239,#49,.T.);
#283=EDGE_CURVE('',#240,#240,#50,.T.);
#284=LINE('',#518,#321);
#285=LINE('',#521,#322);
#286=LINE('',#523,#323);
#287=LINE('',#525,#324);
#288=LINE('',#527,#325);
#289=LINE('',#529,#326);
#290=LINE('',#533,#327);
#291=LINE('',#535,#328);
#292=LINE('',#537,#329);
#293=LINE('',#539,#330);
#294=LINE('',#541,#331);
#295=LINE('',#543,#332);
#296=LINE('',#545,#333);
#297=LINE('',#547,#334);
#298=LINE('',#549,#335);
#299=LINE('',#551,#336);
#300=LINE('',#553,#337);
#301=LINE('',#554,#338);
#302=LINE('',#556,#339);
#303=LINE('',#558,#340);
#304=LINE('',#560,#341);
#305=LINE('',#562,#342);
#306=LINE('',#569,#343);
#307=LINE('',#572,#344);
#308=LINE('',#574,#345);
#309=LINE('',#576,#346);
#310=LINE('',#578,#347);
#311=LINE('',#580,#348);
#312=LINE('',#584,#349);
#313=LINE('',#586,#350);
#314=LINE('',#587,#351);
#315=LINE('',#589,#352);
#316=LINE('',#590,#353);
#317=LINE('',#592,#354);
#318=LINE('',#593,#355);
#319=LINE('',#598,#356);
#320=LINE('',#600,#357);
#321=VECTOR('',#424,1.);
#322=VECTOR('',#425,1.);
#323=VECTOR('',#426,1.);
#324=VECTOR('',#427,1.);
#325=VECTOR('',#428,1.);
#326=VECTOR('',#429,1.);
#327=VECTOR('',#434,1.);
#328=VECTOR('',#435,1.);
#329=VECTOR('',#436,1.);
#330=VECTOR('',#437,1.);
#331=VECTOR('',#438,1.);
#332=VECTOR('',#439,1.);
#333=VECTOR('',#440,1.);
#334=VECTOR('',#441,1.);
#335=VECTOR('',#442,1.);
#336=VECTOR('',#443,1.);
#337=VECTOR('',#446,1.);
#338=VECTOR('',#447,1.);
#339=VECTOR('',#448,1.);
#340=VECTOR('',#451,1.);
#341=VECTOR('',#452,1.);
#342=VECTOR('',#455,1.);
#343=VECTOR('',#464,1.);
#344=VECTOR('',#465,1.);
#345=VECTOR('',#466,1.);
#346=VECTOR('',#467,1.);
#347=VECTOR('',#468,1.);
#348=VECTOR('',#469,1.);
#349=VECTOR('',#472,1.);
#350=VECTOR('',#475,1.);
#351=VECTOR('',#476,1.);
#352=VECTOR('',#479,1.);
#353=VECTOR('',#480,1.);
#354=VECTOR('',#483,1.);
#355=VECTOR('',#484,1.);
#356=VECTOR('',#493,1.);
#357=VECTOR('',#496,1.);
#358=CURVE_STYLE('',#361,POSITIVE_LENGTH_MEASURE(0.18),#385);
#359=CURVE_STYLE('',#362,POSITIVE_LENGTH_MEASURE(0.18),#385);
#360=CURVE_STYLE('',#363,POSITIVE_LENGTH_MEASURE(0.18),#385);
#361=DRAUGHTING_PRE_DEFINED_CURVE_FONT('continuous');
#362=DRAUGHTING_PRE_DEFINED_CURVE_FONT('continuous');
#363=DRAUGHTING_PRE_DEFINED_CURVE_FONT('continuous');
#364=PRESENTATION_LAYER_ASSIGNMENT('1','Layer 1',(#512,#513,#514,#388,#389,
#390,#33));
#365=STYLED_ITEM('',(#372),#512);
#366=STYLED_ITEM('',(#373),#513);
#367=STYLED_ITEM('',(#374),#514);
#368=STYLED_ITEM('',(#375),#388);
#369=STYLED_ITEM('',(#376),#389);
#370=STYLED_ITEM('',(#377),#390);
#371=STYLED_ITEM('',(#378),#33);
#372=PRESENTATION_STYLE_ASSIGNMENT((#379));
#373=PRESENTATION_STYLE_ASSIGNMENT((#380));
#374=PRESENTATION_STYLE_ASSIGNMENT((#381));
#375=PRESENTATION_STYLE_ASSIGNMENT((#358));
#376=PRESENTATION_STYLE_ASSIGNMENT((#359));
#377=PRESENTATION_STYLE_ASSIGNMENT((#360));
#378=PRESENTATION_STYLE_ASSIGNMENT((#28));
#379=POINT_STYLE('',#382,POSITIVE_LENGTH_MEASURE(3.),#385);
#380=POINT_STYLE('',#383,POSITIVE_LENGTH_MEASURE(3.),#385);
#381=POINT_STYLE('',#384,POSITIVE_LENGTH_MEASURE(3.),#385);
#382=PRE_DEFINED_POINT_MARKER_SYMBOL('plus');
#383=PRE_DEFINED_POINT_MARKER_SYMBOL('plus');
#384=PRE_DEFINED_POINT_MARKER_SYMBOL('plus');
#385=COLOUR_RGB('Pale Maroon',0.811749446860456,0.603921568627451,0.611749446860456);
#386=COLOUR_RGB('Medium Gray',0.501960784313725,0.501960784313725,0.501960784313725);
#387=AXIS2_PLACEMENT_3D('',#511,#416,#417);
#388=AXIS2_PLACEMENT_3D('MCS',#515,#418,#419);
#389=AXIS2_PLACEMENT_3D('PCS',#516,#420,#421);
#390=AXIS2_PLACEMENT_3D('CSW',#517,#422,#423);
#391=AXIS2_PLACEMENT_3D('',#531,#430,#431);
#392=AXIS2_PLACEMENT_3D('',#532,#432,#433);
#393=AXIS2_PLACEMENT_3D('',#552,#444,#445);
#394=AXIS2_PLACEMENT_3D('',#557,#449,#450);
#395=AXIS2_PLACEMENT_3D('',#561,#453,#454);
#396=AXIS2_PLACEMENT_3D('',#563,#456,#457);
#397=AXIS2_PLACEMENT_3D('',#564,#458,#459);
#398=AXIS2_PLACEMENT_3D('',#566,#460,#461);
#399=AXIS2_PLACEMENT_3D('',#568,#462,#463);
#400=AXIS2_PLACEMENT_3D('',#582,#470,#471);
#401=AXIS2_PLACEMENT_3D('',#585,#473,#474);
#402=AXIS2_PLACEMENT_3D('',#588,#477,#478);
#403=AXIS2_PLACEMENT_3D('',#591,#481,#482);
#404=AXIS2_PLACEMENT_3D('',#594,#485,#486);
#405=AXIS2_PLACEMENT_3D('',#595,#487,#488);
#406=AXIS2_PLACEMENT_3D('',#596,#489,#490);
#407=AXIS2_PLACEMENT_3D('',#597,#491,#492);
#408=AXIS2_PLACEMENT_3D('',#599,#494,#495);
#409=AXIS2_PLACEMENT_3D('',#601,#497,#498);
#410=AXIS2_PLACEMENT_3D('',#602,#499,#500);
#411=AXIS2_PLACEMENT_3D('',#603,#501,#502);
#412=AXIS2_PLACEMENT_3D('',#605,#503,#504);
#413=AXIS2_PLACEMENT_3D('',#607,#505,#506);
#414=AXIS2_PLACEMENT_3D('',#608,#507,#508);
#415=AXIS2_PLACEMENT_3D('',#609,#509,#510);
#416=DIRECTION('',(0.,0.,1.));
#417=DIRECTION('',(1.,0.,0.));
#418=DIRECTION('',(0.,0.,1.));
#419=DIRECTION('',(1.,0.,0.));
#420=DIRECTION('',(0.,0.,1.));
#421=DIRECTION('',(1.,0.,0.));
#422=DIRECTION('',(0.,0.,1.));
#423=DIRECTION('',(1.,0.,0.));
#424=DIRECTION('',(-0.159678599104553,0.640435880782256,-0.75122874518662));
#425=DIRECTION('',(-9.23638652630699E-017,1.,0.));
#426=DIRECTION('',(0.207911690817759,0.,0.978147600733806));
#427=DIRECTION('',(-9.23638652630699E-017,1.,0.));
#428=DIRECTION('',(-0.207911690817759,0.,-0.978147600733806));
#429=DIRECTION('',(0.159678599104553,0.640435880782256,0.75122874518662));
#430=DIRECTION('',(-0.978147600733806,-9.03454932015723E-017,0.207911690817759));
#431=DIRECTION('',(0.207911690817759,1.92035273973086E-017,0.978147600733806));
#432=DIRECTION('',(-0.978147600733806,-9.03454932015724E-017,0.207911690817759));
#433=DIRECTION('',(-0.207911690817759,0.,-0.978147600733806));
#434=DIRECTION('',(0.241921895599668,-0.970295726275996,1.43632620800933E-016));
#435=DIRECTION('',(1.,0.,0.));
#436=DIRECTION('',(0.707106781186547,0.707106781186548,-1.04672830578918E-016));
#437=DIRECTION('',(0.,-1.,1.48029736616688E-016));
#438=DIRECTION('',(-0.707106781186548,0.707106781186547,-1.04672830578918E-016));
#439=DIRECTION('',(1.,0.,0.));
#440=DIRECTION('',(-0.241921895599668,-0.970295726275996,1.43632620800933E-016));
#441=DIRECTION('',(1.,0.,0.));
#442=DIRECTION('',(0.,-1.,-1.48029736616688E-016));
#443=DIRECTION('',(1.,0.,0.));
#444=DIRECTION('',(0.,1.48029736616688E-016,1.));
#445=DIRECTION('',(0.,1.,-1.48029736616688E-016));
#446=DIRECTION('',(2.66163162923371E-016,0.,-1.));
#447=DIRECTION('',(1.,0.,0.));
#448=DIRECTION('',(0.,0.,-1.));
#449=DIRECTION('',(0.,-1.,0.));
#450=DIRECTION('',(0.,0.,1.));
#451=DIRECTION('',(1.,0.,0.));
#452=DIRECTION('',(0.,1.,0.));
#453=DIRECTION('',(0.,0.,-1.));
#454=DIRECTION('',(-1.,0.,0.));
#455=DIRECTION('',(0.,0.,1.));
#456=DIRECTION('',(0.,1.,0.));
#457=DIRECTION('',(0.,0.,-1.));
#458=DIRECTION('',(0.,0.,1.));
#459=DIRECTION('',(-1.,0.,0.));
#460=DIRECTION('',(0.,0.,1.));
#461=DIRECTION('',(1.,0.,0.));
#462=DIRECTION('',(0.,0.,-1.));
#463=DIRECTION('',(1.,0.,0.));
#464=DIRECTION('',(1.,0.,0.));
#465=DIRECTION('',(0.707106781186548,-0.707106781186547,0.));
#466=DIRECTION('',(0.,-1.,0.));
#467=DIRECTION('',(0.707106781186547,0.707106781186548,0.));
#468=DIRECTION('',(1.,0.,0.));
#469=DIRECTION('',(-0.241921895599668,0.970295726275997,0.));
#470=DIRECTION('',(0.,0.,1.));
#471=DIRECTION('',(-1.,0.,0.));
#472=DIRECTION('',(0.241921895599668,0.970295726275997,0.));
#473=DIRECTION('',(0.,0.,-1.));
#474=DIRECTION('',(1.,0.,0.));
#475=DIRECTION('',(0.,-5.33761069531325E-016,-1.));
#476=DIRECTION('',(1.33081581461686E-016,-5.33761069531325E-016,-1.));
#477=DIRECTION('',(0.,-1.,5.33761069531325E-016));
#478=DIRECTION('',(0.,5.34294830600857E-016,1.));
#479=DIRECTION('',(0.,0.,1.));
#480=DIRECTION('',(0.,0.,-1.));
#481=DIRECTION('',(0.,-1.,0.));
#482=DIRECTION('',(0.,0.,1.));
#483=DIRECTION('',(0.,0.,-1.));
#484=DIRECTION('',(0.,5.33761069531325E-016,1.));
#485=DIRECTION('',(-1.,0.,0.));
#486=DIRECTION('',(0.,0.,1.));
#487=DIRECTION('',(-0.707106781186547,-0.707106781186548,3.77426071798985E-016));
#488=DIRECTION('',(-0.707106781186548,0.707106781186547,0.));
#489=DIRECTION('',(0.707106781186548,-0.707106781186547,0.));
#490=DIRECTION('',(-0.707106781186547,-0.707106781186548,0.));
#491=DIRECTION('',(-1.,0.,0.));
#492=DIRECTION('',(0.,0.,1.));
#493=DIRECTION('',(0.,0.,1.));
#494=DIRECTION('',(-0.970295726275996,0.241921895599668,-2.58256979476649E-016));
#495=DIRECTION('',(-0.241921895599668,-0.970295726275996,0.));
#496=DIRECTION('',(0.,0.,1.));
#497=DIRECTION('',(-0.970295726275996,-0.241921895599668,0.));
#498=DIRECTION('',(0.241921895599668,-0.970295726275996,0.));
#499=DIRECTION('',(0.,0.,1.));
#500=DIRECTION('',(-1.,0.,0.));
#501=DIRECTION('',(0.,0.,-1.));
#502=DIRECTION('',(-1.,0.,0.));
#503=DIRECTION('',(0.,0.,1.));
#504=DIRECTION('',(1.,0.,0.));
#505=DIRECTION('',(0.,0.,1.));
#506=DIRECTION('',(-1.,0.,0.));
#507=DIRECTION('',(0.,0.,1.));
#508=DIRECTION('',(-1.,0.,0.));
#509=DIRECTION('',(0.,0.,1.));
#510=DIRECTION('',(-1.,0.,0.));
#511=CARTESIAN_POINT('',(0.,0.,0.));
#512=CARTESIAN_POINT('',(-36.4312444350161,0.000613979335698364,-5.6843418860808E-014));
#513=CARTESIAN_POINT('',(0.,0.,0.));
#514=CARTESIAN_POINT('',(-89.45,2.,-12.));
#515=CARTESIAN_POINT('',(-36.4312444350161,0.000613979335698364,-5.6843418860808E-014));
#516=CARTESIAN_POINT('',(0.,0.,0.));
#517=CARTESIAN_POINT('',(-89.45,2.,-12.));
#518=CARTESIAN_POINT('',(-115.674910744464,-0.703687407274462,-8.73066479548759));
#519=CARTESIAN_POINT('',(-113.819150654442,-8.1467345935529,5.05473212820357E-015));
#520=CARTESIAN_POINT('',(-114.774718455803,-4.31416147515166,-4.49559304993317));
#521=CARTESIAN_POINT('',(-113.819150654442,-50.5269740299546,3.46944695195361E-015));
#522=CARTESIAN_POINT('',(-113.819150654442,-6.,4.6721885619642E-015));
#523=CARTESIAN_POINT('',(-113.956650091681,-6.,-0.646883992471057));
#524=CARTESIAN_POINT('',(-110.843358791062,-6.,14.));
#525=CARTESIAN_POINT('',(-110.843358791062,-6.,14.));
#526=CARTESIAN_POINT('',(-110.843358791062,18.,14.));
#527=CARTESIAN_POINT('',(-111.10949359015,18.,12.7479342110272));
#528=CARTESIAN_POINT('',(-112.359767680541,18.,6.86585708027263));
#529=CARTESIAN_POINT('',(-115.674910744464,4.70368740727446,-8.73066479548759));
#530=CARTESIAN_POINT('',(-114.774718455803,8.31416147515147,-4.49559304993331));
#531=CARTESIAN_POINT('',(-89.4499999999997,1.99999999999996,114.647839911306));
#532=CARTESIAN_POINT('',(-113.443510204327,-50.5269740299546,1.76724937195097));
#533=CARTESIAN_POINT('',(-113.511759783886,-9.37961203632219,5.23723465133736E-015));
#534=CARTESIAN_POINT('',(-105.129255598089,-43.,1.02140518265514E-014));
#535=CARTESIAN_POINT('',(-116.,-43.,1.02140518265514E-014));
#536=CARTESIAN_POINT('',(-18.,-43.,1.02140518265514E-014));
#537=CARTESIAN_POINT('',(-50.4999999999999,-75.5,1.50250182665938E-014));
#538=CARTESIAN_POINT('',(-3.46944695195361E-015,-25.,7.54951656745106E-015));
#539=CARTESIAN_POINT('',(0.,-10.,5.32907051820075E-015));
#540=CARTESIAN_POINT('',(1.04083408558608E-014,35.,-1.33226762955019E-015));
#541=CARTESIAN_POINT('',(-35.5000000000001,70.5000000000001,-6.58732327944261E-015));
#542=CARTESIAN_POINT('',(-14.,49.,-2.31296463463575E-015));
#543=CARTESIAN_POINT('',(-116.,49.,-1.22124532708767E-015));
#544=CARTESIAN_POINT('',(-104.630599592403,49.,-3.40468394218382E-015));
#545=CARTESIAN_POINT('',(-119.145418537317,-9.21575907798493,5.21297954107083E-015));
#546=CARTESIAN_POINT('',(-112.359767680541,18.,1.1194748831637E-015));
#547=CARTESIAN_POINT('',(-117.,18.,1.73472347597681E-015));
#548=CARTESIAN_POINT('',(-8.,18.,1.73472347597681E-015));
#549=CARTESIAN_POINT('',(-8.,18.,1.77635683940025E-015));
#550=CARTESIAN_POINT('',(-8.,-6.,-1.77635683940025E-015));
#551=CARTESIAN_POINT('',(-117.,-6.,-1.77635683940025E-015));
#552=CARTESIAN_POINT('',(-116.,-10.,5.32907051820075E-015));
#553=CARTESIAN_POINT('',(-112.359767680541,18.,14.));
#554=CARTESIAN_POINT('',(-117.,18.,14.));
#555=CARTESIAN_POINT('',(-8.,18.,14.));
#556=CARTESIAN_POINT('',(-8.,18.,14.));
#557=CARTESIAN_POINT('',(-117.,18.,14.));
#558=CARTESIAN_POINT('',(-117.,-6.,14.));
#559=CARTESIAN_POINT('',(-8.,-6.,14.));
#560=CARTESIAN_POINT('',(-8.,-6.,14.));
#561=CARTESIAN_POINT('',(-117.,-6.,14.));
#562=CARTESIAN_POINT('',(-8.,-6.,-1.77635683940025E-015));
#563=CARTESIAN_POINT('',(-117.,-6.,-1.77635683940025E-015));
#564=CARTESIAN_POINT('',(-89.45,2.,-12.5));
#565=CARTESIAN_POINT('',(-114.55,2.,-12.5));
#566=CARTESIAN_POINT('',(-89.45,2.,-12.));
#567=CARTESIAN_POINT('',(-64.35,2.,-12.));
#568=CARTESIAN_POINT('',(-89.45,2.,-3.4));
#569=CARTESIAN_POINT('',(-116.,49.,-12.5));
#570=CARTESIAN_POINT('',(-104.630599592403,49.,-12.5));
#571=CARTESIAN_POINT('',(-14.,49.,-12.5));
#572=CARTESIAN_POINT('',(-14.,49.,-12.5));
#573=CARTESIAN_POINT('',(1.04083408558608E-014,35.,-12.5));
#574=CARTESIAN_POINT('',(0.,-43.,-12.5));
#575=CARTESIAN_POINT('',(0.,-25.,-12.5));
#576=CARTESIAN_POINT('',(0.,-25.,-12.5));
#577=CARTESIAN_POINT('',(-18.,-43.,-12.5));
#578=CARTESIAN_POINT('',(-116.,-43.,-12.5));
#579=CARTESIAN_POINT('',(-105.129255598089,-43.,-12.5));
#580=CARTESIAN_POINT('',(-113.168805134903,-10.75512800353,-12.5));
#581=CARTESIAN_POINT('',(-114.774718455803,-4.31416147515166,-12.5));
#582=CARTESIAN_POINT('',(-89.4499999999997,1.99999999999996,-12.5));
#583=CARTESIAN_POINT('',(-114.774718455803,8.31416147515147,-12.5));
#584=CARTESIAN_POINT('',(-112.699333572117,16.6380755963889,-12.5));
#585=CARTESIAN_POINT('',(-57.775,3.00000000000001,-12.5));
#586=CARTESIAN_POINT('',(-14.,49.,-1.22124532708767E-015));
#587=CARTESIAN_POINT('',(-104.630599592403,49.,2.91812459426487E-016));
#588=CARTESIAN_POINT('',(-116.,49.,-1.22124532708767E-015));
#589=CARTESIAN_POINT('',(-18.,-43.,1.02140518265514E-014));
#590=CARTESIAN_POINT('',(-105.129255598089,-43.,1.02140518265514E-014));
#591=CARTESIAN_POINT('',(-116.,-43.,1.02140518265514E-014));
#592=CARTESIAN_POINT('',(0.,-25.,-12.));
#593=CARTESIAN_POINT('',(0.,35.,-52.));
#594=CARTESIAN_POINT('',(0.,-43.,-52.));
#595=CARTESIAN_POINT('',(-14.,49.,-1.22124532708767E-015));
#596=CARTESIAN_POINT('',(0.,-25.,-52.));
#597=CARTESIAN_POINT('',(-8.,18.,14.));
#598=CARTESIAN_POINT('',(-114.774718455803,8.31416147515147,-17.));
#599=CARTESIAN_POINT('',(-114.774718455804,8.31416147515133,-12.));
#600=CARTESIAN_POINT('',(-114.774718455803,-4.31416147515166,-17.));
#601=CARTESIAN_POINT('',(-114.774718455804,-4.31416147515133,-12.));
#602=CARTESIAN_POINT('',(-89.4499999999997,1.99999999999996,-17.));
#603=CARTESIAN_POINT('',(-89.45,2.,-3.4));
#604=CARTESIAN_POINT('',(-106.45,2.,-3.4));
#605=CARTESIAN_POINT('',(-89.45,2.,-12.));
#606=CARTESIAN_POINT('',(-72.45,2.,-12.));
#607=CARTESIAN_POINT('',(-89.45,2.,-12.));
#608=CARTESIAN_POINT('',(-89.45,2.,-12.));
#609=CARTESIAN_POINT('',(-89.45,2.,-3.4));
#610=MECHANICAL_DESIGN_GEOMETRIC_PRESENTATION_REPRESENTATION('',(#365,#366,
#367,#368,#369,#370,#371),#611);
#611=(
GEOMETRIC_REPRESENTATION_CONTEXT(3)
GLOBAL_UNCERTAINTY_ASSIGNED_CONTEXT((#612))
GLOBAL_UNIT_ASSIGNED_CONTEXT((#618,#614,#613))
REPRESENTATION_CONTEXT('1551360717957','TOP_LEVEL_ASSEMBLY_PART')
);
#612=UNCERTAINTY_MEASURE_WITH_UNIT(LENGTH_MEASURE(2.E-005),#618,
'DISTANCE_ACCURACY_VALUE','Maximum Tolerance applied to model');
#613=(
NAMED_UNIT(*)
SI_UNIT($,.STERADIAN.)
SOLID_ANGLE_UNIT()
);
#614=(
CONVERSION_BASED_UNIT('DEGREE',#616)
NAMED_UNIT(#615)
PLANE_ANGLE_UNIT()
);
#615=DIMENSIONAL_EXPONENTS(0.,0.,0.,0.,0.,0.,0.);
#616=PLANE_ANGLE_MEASURE_WITH_UNIT(PLANE_ANGLE_MEASURE(0.0174532925),#617);
#617=(
NAMED_UNIT(*)
PLANE_ANGLE_UNIT()
SI_UNIT($,.RADIAN.)
);
#618=(
LENGTH_UNIT()
NAMED_UNIT(*)
SI_UNIT(.MILLI.,.METRE.)
);
ENDSEC;
END-ISO-10303-21;
