ISO-10303-21;
HEADER;
/* Generated by software containing ST-Developer
 * from STEP Tools, Inc. (www.steptools.com) 
 */
/* OPTION: using custom schema-name function */

FILE_DESCRIPTION(
/* description */ (''),
/* implementation_level */ '2;1');

FILE_NAME(
/* name */ '1549374502328.stp',
/* time_stamp */ '2019-02-05T14:48:38+01:00',
/* author */ (''),
/* organization */ ('SMS'),
/* preprocessor_version */ 'ST-DEVELOPER v15',
/* originating_system */ 'SIEMENS PLM Software NX 8.5',
/* authorisation */ '');

FILE_SCHEMA (('AUTOMOTIVE_DESIGN { 1 0 10303 214 3 1 1 1 }'));
ENDSEC;

DATA;
#10=CONSTRUCTIVE_GEOMETRY_REPRESENTATION_RELATIONSHIP(
'supplemental geometry','',#26,#11);
#11=CONSTRUCTIVE_GEOMETRY_REPRESENTATION('supplemental geometry',(#89,#90,
#91),#130);
#12=GEOMETRICALLY_BOUNDED_WIREFRAME_SHAPE_REPRESENTATION(
'111164769mod000_01-None',(#27),#130);
#13=SHAPE_REPRESENTATION_RELATIONSHIP('None',
'relationship between 111164769mod000_01-None and 111164769mod000_01-N
one',#26,#15);
#14=SHAPE_REPRESENTATION_RELATIONSHIP('None',
'relationship between 111164769mod000_01-None and 111164769mod000_01-N
one',#26,#12);
#15=ADVANCED_BREP_SHAPE_REPRESENTATION('111164769mod000_01-None',(#33),
#130);
#16=SHAPE_DEFINITION_REPRESENTATION(#17,#26);
#17=PRODUCT_DEFINITION_SHAPE('','',#18);
#18=PRODUCT_DEFINITION(' ','',#20,#19);
#19=PRODUCT_DEFINITION_CONTEXT('part definition',#25,'design');
#20=PRODUCT_DEFINITION_FORMATION_WITH_SPECIFIED_SOURCE(' ',' ',#22,
 .NOT_KNOWN.);
#21=PRODUCT_RELATED_PRODUCT_CATEGORY('part','',(#22));
#22=PRODUCT('111164769mod000_01','111164769mod000_01',' ',(#23));
#23=PRODUCT_CONTEXT(' ',#25,'mechanical');
#24=APPLICATION_PROTOCOL_DEFINITION('international standard',
'automotive_design',2010,#25);
#25=APPLICATION_CONTEXT(
'core data for automotive mechanical design processes');
#26=SHAPE_REPRESENTATION('111164769mod000_01-None',(#88),#130);
#27=GEOMETRIC_CURVE_SET('None',(#116,#117,#118));
#28=SURFACE_STYLE_USAGE(.BOTH.,#29);
#29=SURFACE_SIDE_STYLE('',(#30));
#30=SURFACE_STYLE_FILL_AREA(#31);
#31=FILL_AREA_STYLE('',(#32));
#32=FILL_AREA_STYLE_COLOUR('',#87);
#33=MANIFOLD_SOLID_BREP('NOCUT',#34);
#34=CLOSED_SHELL('',(#38,#39,#40));
#35=CYLINDRICAL_SURFACE('',#96,7.8);
#36=FACE_BOUND('',#47,.T.);
#37=FACE_BOUND('',#48,.T.);
#38=ADVANCED_FACE('',(#43),#41,.T.);
#39=ADVANCED_FACE('',(#44),#42,.T.);
#40=ADVANCED_FACE('',(#36,#37),#35,.T.);
#41=PLANE('',#93);
#42=PLANE('',#95);
#43=FACE_OUTER_BOUND('',#45,.T.);
#44=FACE_OUTER_BOUND('',#46,.T.);
#45=EDGE_LOOP('',(#49));
#46=EDGE_LOOP('',(#50));
#47=EDGE_LOOP('',(#51));
#48=EDGE_LOOP('',(#52));
#49=ORIENTED_EDGE('',*,*,#55,.F.);
#50=ORIENTED_EDGE('',*,*,#56,.F.);
#51=ORIENTED_EDGE('',*,*,#55,.T.);
#52=ORIENTED_EDGE('',*,*,#56,.T.);
#53=VERTEX_POINT('',#123);
#54=VERTEX_POINT('',#126);
#55=EDGE_CURVE('',#53,#53,#57,.T.);
#56=EDGE_CURVE('',#54,#54,#58,.T.);
#57=CIRCLE('',#92,7.8);
#58=CIRCLE('',#94,7.8);
#59=CURVE_STYLE('',#62,POSITIVE_LENGTH_MEASURE(0.18),#86);
#60=CURVE_STYLE('',#63,POSITIVE_LENGTH_MEASURE(0.18),#86);
#61=CURVE_STYLE('',#64,POSITIVE_LENGTH_MEASURE(0.18),#86);
#62=DRAUGHTING_PRE_DEFINED_CURVE_FONT('continuous');
#63=DRAUGHTING_PRE_DEFINED_CURVE_FONT('continuous');
#64=DRAUGHTING_PRE_DEFINED_CURVE_FONT('continuous');
#65=PRESENTATION_LAYER_ASSIGNMENT('1','Layer 1',(#116,#117,#118,#89,#90,
#91,#33));
#66=STYLED_ITEM('',(#73),#116);
#67=STYLED_ITEM('',(#74),#117);
#68=STYLED_ITEM('',(#75),#118);
#69=STYLED_ITEM('',(#76),#89);
#70=STYLED_ITEM('',(#77),#90);
#71=STYLED_ITEM('',(#78),#91);
#72=STYLED_ITEM('',(#79),#33);
#73=PRESENTATION_STYLE_ASSIGNMENT((#80));
#74=PRESENTATION_STYLE_ASSIGNMENT((#81));
#75=PRESENTATION_STYLE_ASSIGNMENT((#82));
#76=PRESENTATION_STYLE_ASSIGNMENT((#59));
#77=PRESENTATION_STYLE_ASSIGNMENT((#60));
#78=PRESENTATION_STYLE_ASSIGNMENT((#61));
#79=PRESENTATION_STYLE_ASSIGNMENT((#28));
#80=POINT_STYLE('',#83,POSITIVE_LENGTH_MEASURE(3.),#86);
#81=POINT_STYLE('',#84,POSITIVE_LENGTH_MEASURE(3.),#86);
#82=POINT_STYLE('',#85,POSITIVE_LENGTH_MEASURE(3.),#86);
#83=PRE_DEFINED_POINT_MARKER_SYMBOL('plus');
#84=PRE_DEFINED_POINT_MARKER_SYMBOL('plus');
#85=PRE_DEFINED_POINT_MARKER_SYMBOL('plus');
#86=COLOUR_RGB('Pale Maroon',0.811749446860456,0.603921568627451,0.611749446860456);
#87=COLOUR_RGB('TLS_NOCUT',0.501960784313725,0.501960784313725,0.501960784313725);
#88=AXIS2_PLACEMENT_3D('',#115,#97,#98);
#89=AXIS2_PLACEMENT_3D('MCS',#119,#99,#100);
#90=AXIS2_PLACEMENT_3D('PCS',#120,#101,#102);
#91=AXIS2_PLACEMENT_3D('CSW',#121,#103,#104);
#92=AXIS2_PLACEMENT_3D('',#122,#105,#106);
#93=AXIS2_PLACEMENT_3D('',#124,#107,#108);
#94=AXIS2_PLACEMENT_3D('',#125,#109,#110);
#95=AXIS2_PLACEMENT_3D('',#127,#111,#112);
#96=AXIS2_PLACEMENT_3D('',#128,#113,#114);
#97=DIRECTION('',(0.,0.,1.));
#98=DIRECTION('',(1.,0.,0.));
#99=DIRECTION('',(0.,0.,1.));
#100=DIRECTION('',(1.,0.,0.));
#101=DIRECTION('',(0.,0.,1.));
#102=DIRECTION('',(1.,0.,0.));
#103=DIRECTION('',(0.,0.,1.));
#104=DIRECTION('',(1.,0.,0.));
#105=DIRECTION('',(1.,0.,0.));
#106=DIRECTION('',(0.,0.,-1.));
#107=DIRECTION('',(-1.,0.,0.));
#108=DIRECTION('',(0.,0.,-1.));
#109=DIRECTION('',(-1.,0.,0.));
#110=DIRECTION('',(0.,0.,1.));
#111=DIRECTION('',(1.,0.,0.));
#112=DIRECTION('',(0.,0.,1.));
#113=DIRECTION('',(-1.,0.,0.));
#114=DIRECTION('',(0.,0.,-1.));
#115=CARTESIAN_POINT('',(0.,0.,0.));
#116=CARTESIAN_POINT('',(0.,0.,0.));
#117=CARTESIAN_POINT('',(0.,0.,0.));
#118=CARTESIAN_POINT('',(-3.6,0.,0.));
#119=CARTESIAN_POINT('',(0.,0.,0.));
#120=CARTESIAN_POINT('',(0.,0.,0.));
#121=CARTESIAN_POINT('',(-3.6,0.,0.));
#122=CARTESIAN_POINT('',(-3.6,0.,0.));
#123=CARTESIAN_POINT('',(-3.6,0.,-7.8));
#124=CARTESIAN_POINT('',(-3.6,0.,0.));
#125=CARTESIAN_POINT('',(0.,0.,0.));
#126=CARTESIAN_POINT('',(0.,0.,7.8));
#127=CARTESIAN_POINT('',(0.,0.,0.));
#128=CARTESIAN_POINT('',(0.,0.,0.));
#129=MECHANICAL_DESIGN_GEOMETRIC_PRESENTATION_REPRESENTATION('',(#66,#67,
#68,#69,#70,#71,#72),#130);
#130=(
GEOMETRIC_REPRESENTATION_CONTEXT(3)
GLOBAL_UNCERTAINTY_ASSIGNED_CONTEXT((#131))
GLOBAL_UNIT_ASSIGNED_CONTEXT((#137,#133,#132))
REPRESENTATION_CONTEXT('1549374502328','TOP_LEVEL_ASSEMBLY_PART')
);
#131=UNCERTAINTY_MEASURE_WITH_UNIT(LENGTH_MEASURE(2.E-005),#137,
'DISTANCE_ACCURACY_VALUE','Maximum Tolerance applied to model');
#132=(
NAMED_UNIT(*)
SI_UNIT($,.STERADIAN.)
SOLID_ANGLE_UNIT()
);
#133=(
CONVERSION_BASED_UNIT('DEGREE',#135)
NAMED_UNIT(#134)
PLANE_ANGLE_UNIT()
);
#134=DIMENSIONAL_EXPONENTS(0.,0.,0.,0.,0.,0.,0.);
#135=PLANE_ANGLE_MEASURE_WITH_UNIT(PLANE_ANGLE_MEASURE(0.0174532925),#136);
#136=(
NAMED_UNIT(*)
PLANE_ANGLE_UNIT()
SI_UNIT($,.RADIAN.)
);
#137=(
LENGTH_UNIT()
NAMED_UNIT(*)
SI_UNIT(.MILLI.,.METRE.)
);
ENDSEC;
END-ISO-10303-21;
