ISO-10303-21;
HEADER;
/* Generated by software containing ST-Developer
 * from STEP Tools, Inc. (www.steptools.com) 
 */
/* OPTION: using custom schema-name function */

FILE_DESCRIPTION(
/* description */ (''),
/* implementation_level */ '2;1');

FILE_NAME(
/* name */ '1550756672251.stp',
/* time_stamp */ '2019-02-21T14:44:48+01:00',
/* author */ (''),
/* organization */ ('SMS'),
/* preprocessor_version */ 'ST-DEVELOPER v15',
/* originating_system */ 'SIEMENS PLM Software NX 8.5',
/* authorisation */ '');

FILE_SCHEMA (('AUTOMOTIVE_DESIGN { 1 0 10303 214 3 1 1 1 }'));
ENDSEC;

DATA;
#10=CONSTRUCTIVE_GEOMETRY_REPRESENTATION_RELATIONSHIP(
'supplemental geometry','',#26,#11);
#11=CONSTRUCTIVE_GEOMETRY_REPRESENTATION('supplemental geometry',(#158,
#159,#160),#254);
#12=GEOMETRICALLY_BOUNDED_WIREFRAME_SHAPE_REPRESENTATION(
'111164415mod000_01-None',(#27),#254);
#13=SHAPE_REPRESENTATION_RELATIONSHIP('None',
'relationship between 111164415mod000_01-None and 111164415mod000_01-N
one',#26,#15);
#14=SHAPE_REPRESENTATION_RELATIONSHIP('None',
'relationship between 111164415mod000_01-None and 111164415mod000_01-N
one',#26,#12);
#15=ADVANCED_BREP_SHAPE_REPRESENTATION('111164415mod000_01-None',(#33),
#254);
#16=SHAPE_DEFINITION_REPRESENTATION(#17,#26);
#17=PRODUCT_DEFINITION_SHAPE('','',#18);
#18=PRODUCT_DEFINITION(' ','',#20,#19);
#19=PRODUCT_DEFINITION_CONTEXT('part definition',#25,'design');
#20=PRODUCT_DEFINITION_FORMATION_WITH_SPECIFIED_SOURCE(' ',' ',#22,
 .NOT_KNOWN.);
#21=PRODUCT_RELATED_PRODUCT_CATEGORY('part','',(#22));
#22=PRODUCT('111164415mod000_01','111164415mod000_01',' ',(#23));
#23=PRODUCT_CONTEXT(' ',#25,'mechanical');
#24=APPLICATION_PROTOCOL_DEFINITION('international standard',
'automotive_design',2010,#25);
#25=APPLICATION_CONTEXT(
'core data for automotive mechanical design processes');
#26=SHAPE_REPRESENTATION('111164415mod000_01-None',(#157),#254);
#27=GEOMETRIC_CURVE_SET('None',(#221,#222,#223));
#28=SURFACE_STYLE_USAGE(.BOTH.,#29);
#29=SURFACE_SIDE_STYLE('',(#30));
#30=SURFACE_STYLE_FILL_AREA(#31);
#31=FILL_AREA_STYLE('',(#32));
#32=FILL_AREA_STYLE_COLOUR('',#156);
#33=MANIFOLD_SOLID_BREP('NOCUT',#34);
#34=CLOSED_SHELL('',(#58,#59,#60,#61,#62,#63,#64,#65,#66));
#35=VERTEX_LOOP('',#111);
#36=CONICAL_SURFACE('',#168,20.1071873372118,8.29777777777777);
#37=CONICAL_SURFACE('',#174,11.25,70.0000000000003);
#38=CONICAL_SURFACE('',#176,2.67372632032333E-014,69.9999999999999);
#39=CYLINDRICAL_SURFACE('',#164,19.9915);
#40=CYLINDRICAL_SURFACE('',#172,13.1875);
#41=CYLINDRICAL_SURFACE('',#177,11.25);
#42=FACE_BOUND('',#72,.T.);
#43=FACE_BOUND('',#73,.T.);
#44=FACE_BOUND('',#74,.T.);
#45=FACE_BOUND('',#75,.T.);
#46=FACE_BOUND('',#76,.T.);
#47=FACE_BOUND('',#77,.T.);
#48=FACE_BOUND('',#78,.T.);
#49=FACE_BOUND('',#79,.T.);
#50=FACE_BOUND('',#80,.T.);
#51=FACE_BOUND('',#81,.T.);
#52=FACE_BOUND('',#82,.T.);
#53=FACE_BOUND('',#83,.T.);
#54=FACE_BOUND('',#84,.T.);
#55=FACE_BOUND('',#35,.T.);
#56=FACE_BOUND('',#85,.T.);
#57=FACE_BOUND('',#86,.T.);
#58=ADVANCED_FACE('',(#70),#67,.T.);
#59=ADVANCED_FACE('',(#42,#43),#39,.T.);
#60=ADVANCED_FACE('',(#44,#45),#68,.T.);
#61=ADVANCED_FACE('',(#46,#47),#36,.T.);
#62=ADVANCED_FACE('',(#48,#49),#69,.F.);
#63=ADVANCED_FACE('',(#50,#51),#40,.F.);
#64=ADVANCED_FACE('',(#52,#53),#37,.F.);
#65=ADVANCED_FACE('',(#54,#55),#38,.F.);
#66=ADVANCED_FACE('',(#56,#57),#41,.F.);
#67=PLANE('',#162);
#68=PLANE('',#166);
#69=PLANE('',#170);
#70=FACE_OUTER_BOUND('',#71,.T.);
#71=EDGE_LOOP('',(#87));
#72=EDGE_LOOP('',(#88));
#73=EDGE_LOOP('',(#89));
#74=EDGE_LOOP('',(#90));
#75=EDGE_LOOP('',(#91));
#76=EDGE_LOOP('',(#92));
#77=EDGE_LOOP('',(#93));
#78=EDGE_LOOP('',(#94));
#79=EDGE_LOOP('',(#95));
#80=EDGE_LOOP('',(#96));
#81=EDGE_LOOP('',(#97));
#82=EDGE_LOOP('',(#98));
#83=EDGE_LOOP('',(#99));
#84=EDGE_LOOP('',(#100));
#85=EDGE_LOOP('',(#101));
#86=EDGE_LOOP('',(#102));
#87=ORIENTED_EDGE('',*,*,#112,.T.);
#88=ORIENTED_EDGE('',*,*,#112,.F.);
#89=ORIENTED_EDGE('',*,*,#113,.T.);
#90=ORIENTED_EDGE('',*,*,#114,.T.);
#91=ORIENTED_EDGE('',*,*,#113,.F.);
#92=ORIENTED_EDGE('',*,*,#115,.T.);
#93=ORIENTED_EDGE('',*,*,#114,.F.);
#94=ORIENTED_EDGE('',*,*,#116,.T.);
#95=ORIENTED_EDGE('',*,*,#115,.F.);
#96=ORIENTED_EDGE('',*,*,#116,.F.);
#97=ORIENTED_EDGE('',*,*,#117,.T.);
#98=ORIENTED_EDGE('',*,*,#117,.F.);
#99=ORIENTED_EDGE('',*,*,#118,.T.);
#100=ORIENTED_EDGE('',*,*,#119,.F.);
#101=ORIENTED_EDGE('',*,*,#118,.F.);
#102=ORIENTED_EDGE('',*,*,#119,.T.);
#103=VERTEX_POINT('',#228);
#104=VERTEX_POINT('',#231);
#105=VERTEX_POINT('',#234);
#106=VERTEX_POINT('',#237);
#107=VERTEX_POINT('',#240);
#108=VERTEX_POINT('',#243);
#109=VERTEX_POINT('',#246);
#110=VERTEX_POINT('',#249);
#111=VERTEX_POINT('',#250);
#112=EDGE_CURVE('',#103,#103,#120,.T.);
#113=EDGE_CURVE('',#104,#104,#121,.T.);
#114=EDGE_CURVE('',#105,#105,#122,.T.);
#115=EDGE_CURVE('',#106,#106,#123,.T.);
#116=EDGE_CURVE('',#107,#107,#124,.T.);
#117=EDGE_CURVE('',#108,#108,#125,.T.);
#118=EDGE_CURVE('',#109,#109,#126,.T.);
#119=EDGE_CURVE('',#110,#110,#127,.T.);
#120=CIRCLE('',#161,19.9915);
#121=CIRCLE('',#163,19.9915);
#122=CIRCLE('',#165,34.6333107743546);
#123=CIRCLE('',#167,20.1071873372118);
#124=CIRCLE('',#169,13.1875);
#125=CIRCLE('',#171,13.1875);
#126=CIRCLE('',#173,11.25);
#127=CIRCLE('',#175,11.25);
#128=CURVE_STYLE('',#131,POSITIVE_LENGTH_MEASURE(0.18),#155);
#129=CURVE_STYLE('',#132,POSITIVE_LENGTH_MEASURE(0.18),#155);
#130=CURVE_STYLE('',#133,POSITIVE_LENGTH_MEASURE(0.18),#155);
#131=DRAUGHTING_PRE_DEFINED_CURVE_FONT('continuous');
#132=DRAUGHTING_PRE_DEFINED_CURVE_FONT('continuous');
#133=DRAUGHTING_PRE_DEFINED_CURVE_FONT('continuous');
#134=PRESENTATION_LAYER_ASSIGNMENT('1','Layer 1',(#221,#222,#223,#158,#159,
#160,#33));
#135=STYLED_ITEM('',(#142),#221);
#136=STYLED_ITEM('',(#143),#222);
#137=STYLED_ITEM('',(#144),#223);
#138=STYLED_ITEM('',(#145),#158);
#139=STYLED_ITEM('',(#146),#159);
#140=STYLED_ITEM('',(#147),#160);
#141=STYLED_ITEM('',(#148),#33);
#142=PRESENTATION_STYLE_ASSIGNMENT((#149));
#143=PRESENTATION_STYLE_ASSIGNMENT((#150));
#144=PRESENTATION_STYLE_ASSIGNMENT((#151));
#145=PRESENTATION_STYLE_ASSIGNMENT((#128));
#146=PRESENTATION_STYLE_ASSIGNMENT((#129));
#147=PRESENTATION_STYLE_ASSIGNMENT((#130));
#148=PRESENTATION_STYLE_ASSIGNMENT((#28));
#149=POINT_STYLE('',#152,POSITIVE_LENGTH_MEASURE(3.),#155);
#150=POINT_STYLE('',#153,POSITIVE_LENGTH_MEASURE(3.),#155);
#151=POINT_STYLE('',#154,POSITIVE_LENGTH_MEASURE(3.),#155);
#152=PRE_DEFINED_POINT_MARKER_SYMBOL('plus');
#153=PRE_DEFINED_POINT_MARKER_SYMBOL('plus');
#154=PRE_DEFINED_POINT_MARKER_SYMBOL('plus');
#155=COLOUR_RGB('Strong Stone',0.576470588235294,0.54508278019379,0.392156862745098);
#156=COLOUR_RGB('TLS_NOCUT',0.501960784313725,0.501960784313725,0.501960784313725);
#157=AXIS2_PLACEMENT_3D('',#220,#178,#179);
#158=AXIS2_PLACEMENT_3D('MCS',#224,#180,#181);
#159=AXIS2_PLACEMENT_3D('PCS',#225,#182,#183);
#160=AXIS2_PLACEMENT_3D('CSW',#226,#184,#185);
#161=AXIS2_PLACEMENT_3D('',#227,#186,#187);
#162=AXIS2_PLACEMENT_3D('',#229,#188,#189);
#163=AXIS2_PLACEMENT_3D('',#230,#190,#191);
#164=AXIS2_PLACEMENT_3D('',#232,#192,#193);
#165=AXIS2_PLACEMENT_3D('',#233,#194,#195);
#166=AXIS2_PLACEMENT_3D('',#235,#196,#197);
#167=AXIS2_PLACEMENT_3D('',#236,#198,#199);
#168=AXIS2_PLACEMENT_3D('',#238,#200,#201);
#169=AXIS2_PLACEMENT_3D('',#239,#202,#203);
#170=AXIS2_PLACEMENT_3D('',#241,#204,#205);
#171=AXIS2_PLACEMENT_3D('',#242,#206,#207);
#172=AXIS2_PLACEMENT_3D('',#244,#208,#209);
#173=AXIS2_PLACEMENT_3D('',#245,#210,#211);
#174=AXIS2_PLACEMENT_3D('',#247,#212,#213);
#175=AXIS2_PLACEMENT_3D('',#248,#214,#215);
#176=AXIS2_PLACEMENT_3D('',#251,#216,#217);
#177=AXIS2_PLACEMENT_3D('',#252,#218,#219);
#178=DIRECTION('',(0.,0.,1.));
#179=DIRECTION('',(1.,0.,0.));
#180=DIRECTION('',(0.,0.,1.));
#181=DIRECTION('',(1.,0.,0.));
#182=DIRECTION('',(0.,0.,1.));
#183=DIRECTION('',(1.,0.,0.));
#184=DIRECTION('',(0.,0.,1.));
#185=DIRECTION('',(1.,0.,0.));
#186=DIRECTION('',(0.,0.,-1.));
#187=DIRECTION('',(-1.,0.,0.));
#188=DIRECTION('',(0.,0.,-1.));
#189=DIRECTION('',(-1.,0.,0.));
#190=DIRECTION('',(0.,0.,-1.));
#191=DIRECTION('',(1.,0.,0.));
#192=DIRECTION('',(0.,0.,-1.));
#193=DIRECTION('',(-1.,0.,0.));
#194=DIRECTION('',(0.,0.,-1.));
#195=DIRECTION('',(-1.,0.,0.));
#196=DIRECTION('',(0.,0.,-1.));
#197=DIRECTION('',(-1.,0.,0.));
#198=DIRECTION('',(0.,0.,-1.));
#199=DIRECTION('',(-1.,0.,0.));
#200=DIRECTION('',(0.,0.,-1.));
#201=DIRECTION('',(-1.,0.,1.67250825775198E-016));
#202=DIRECTION('',(0.,0.,-1.));
#203=DIRECTION('',(-1.,0.,0.));
#204=DIRECTION('',(0.,0.,-1.));
#205=DIRECTION('',(-1.,0.,0.));
#206=DIRECTION('',(0.,2.34448526775967E-016,-1.));
#207=DIRECTION('',(0.,-1.,0.));
#208=DIRECTION('',(0.,2.34448526775967E-016,-1.));
#209=DIRECTION('',(0.,-1.,0.));
#210=DIRECTION('',(0.,2.34448526775967E-016,-1.));
#211=DIRECTION('',(0.,-1.,0.));
#212=DIRECTION('',(0.,-2.34448526775967E-016,1.));
#213=DIRECTION('',(0.,1.,2.71647186429937E-016));
#214=DIRECTION('',(0.,2.34448526775967E-016,-1.));
#215=DIRECTION('',(0.,-1.,0.));
#216=DIRECTION('',(0.,-2.34448526775967E-016,1.));
#217=DIRECTION('',(0.,1.,2.1972292305855E-016));
#218=DIRECTION('',(0.,2.34448526775967E-016,-1.));
#219=DIRECTION('',(0.,-1.,0.));
#220=CARTESIAN_POINT('',(0.,0.,0.));
#221=CARTESIAN_POINT('',(0.,0.,0.));
#222=CARTESIAN_POINT('',(0.,0.,0.));
#223=CARTESIAN_POINT('',(4.33680868994202E-016,-1.73472347597681E-015,0.));
#224=CARTESIAN_POINT('',(0.,0.,0.));
#225=CARTESIAN_POINT('',(0.,0.,0.));
#226=CARTESIAN_POINT('',(4.33680868994202E-016,-1.73472347597681E-015,0.));
#227=CARTESIAN_POINT('',(4.33680868994202E-016,-1.73472347597681E-015,-25.));
#228=CARTESIAN_POINT('',(-19.9915,-1.73472347597681E-015,-25.));
#229=CARTESIAN_POINT('',(4.33680868994202E-016,-1.73472347597681E-015,-25.));
#230=CARTESIAN_POINT('',(4.33680868994202E-016,-1.73472347597681E-015,2.));
#231=CARTESIAN_POINT('',(19.9915,-1.73472347597681E-015,2.));
#232=CARTESIAN_POINT('',(4.33680868994202E-016,-1.73472347597681E-015,2.));
#233=CARTESIAN_POINT('',(0.,0.,2.));
#234=CARTESIAN_POINT('',(-34.6333107743546,0.,2.));
#235=CARTESIAN_POINT('',(0.,0.,2.));
#236=CARTESIAN_POINT('',(0.,0.,101.6));
#237=CARTESIAN_POINT('',(-20.1071873372118,0.,101.6));
#238=CARTESIAN_POINT('',(0.,0.,101.6));
#239=CARTESIAN_POINT('',(0.,5.4652030517977E-015,101.6));
#240=CARTESIAN_POINT('',(-13.1875,5.4652030517977E-015,101.6));
#241=CARTESIAN_POINT('',(0.,0.,101.6));
#242=CARTESIAN_POINT('',(0.,6.95395119682509E-015,95.25));
#243=CARTESIAN_POINT('',(0.,-13.1875,95.25));
#244=CARTESIAN_POINT('',(0.,3.97645490677031E-015,107.95));
#245=CARTESIAN_POINT('',(0.,7.11928249942724E-015,94.5448076711092));
#246=CARTESIAN_POINT('',(0.,-11.25,94.5448076711092));
#247=CARTESIAN_POINT('',(0.,7.11928249942724E-015,94.5448076711092));
#248=CARTESIAN_POINT('',(0.,1.95321146583557E-014,41.6));
#249=CARTESIAN_POINT('',(0.,-11.25,41.6));
#250=CARTESIAN_POINT('',(0.,-5.32907051820075E-015,37.5053348645052));
#251=CARTESIAN_POINT('',(0.,2.04921028670134E-014,37.5053348645052));
#252=CARTESIAN_POINT('',(0.,3.97645490677031E-015,107.95));
#253=MECHANICAL_DESIGN_GEOMETRIC_PRESENTATION_REPRESENTATION('',(#135,#136,
#137,#138,#139,#140,#141),#254);
#254=(
GEOMETRIC_REPRESENTATION_CONTEXT(3)
GLOBAL_UNCERTAINTY_ASSIGNED_CONTEXT((#255))
GLOBAL_UNIT_ASSIGNED_CONTEXT((#261,#257,#256))
REPRESENTATION_CONTEXT('1550756672251','TOP_LEVEL_ASSEMBLY_PART')
);
#255=UNCERTAINTY_MEASURE_WITH_UNIT(LENGTH_MEASURE(2.E-005),#261,
'DISTANCE_ACCURACY_VALUE','Maximum Tolerance applied to model');
#256=(
NAMED_UNIT(*)
SI_UNIT($,.STERADIAN.)
SOLID_ANGLE_UNIT()
);
#257=(
CONVERSION_BASED_UNIT('DEGREE',#259)
NAMED_UNIT(#258)
PLANE_ANGLE_UNIT()
);
#258=DIMENSIONAL_EXPONENTS(0.,0.,0.,0.,0.,0.,0.);
#259=PLANE_ANGLE_MEASURE_WITH_UNIT(PLANE_ANGLE_MEASURE(0.0174532925),#260);
#260=(
NAMED_UNIT(*)
PLANE_ANGLE_UNIT()
SI_UNIT($,.RADIAN.)
);
#261=(
LENGTH_UNIT()
NAMED_UNIT(*)
SI_UNIT(.MILLI.,.METRE.)
);
ENDSEC;
END-ISO-10303-21;
