ISO-10303-21;
HEADER;
/* Generated by software containing ST-Developer
 * from STEP Tools, Inc. (www.steptools.com) 
 */
/* OPTION: using custom schema-name function */

FILE_DESCRIPTION(
/* description */ (''),
/* implementation_level */ '2;1');

FILE_NAME(
/* name */ '1551355591523.stp',
/* time_stamp */ '2019-02-28T13:06:48+01:00',
/* author */ (''),
/* organization */ ('SMS'),
/* preprocessor_version */ 'ST-DEVELOPER v15',
/* originating_system */ 'SIEMENS PLM Software NX 8.5',
/* authorisation */ '');

FILE_SCHEMA (('AUTOMOTIVE_DESIGN { 1 0 10303 214 3 1 1 1 }'));
ENDSEC;

DATA;
#10=CONSTRUCTIVE_GEOMETRY_REPRESENTATION_RELATIONSHIP(
'supplemental geometry','',#26,#11);
#11=CONSTRUCTIVE_GEOMETRY_REPRESENTATION('supplemental geometry',(#445,
#446,#447),#734);
#12=GEOMETRICALLY_BOUNDED_WIREFRAME_SHAPE_REPRESENTATION(
'111164404mod000_01-None',(#27),#734);
#13=SHAPE_REPRESENTATION_RELATIONSHIP('None',
'relationship between 111164404mod000_01-None and 111164404mod000_01-N
one',#26,#15);
#14=SHAPE_REPRESENTATION_RELATIONSHIP('None',
'relationship between 111164404mod000_01-None and 111164404mod000_01-N
one',#26,#12);
#15=ADVANCED_BREP_SHAPE_REPRESENTATION('111164404mod000_01-None',(#33),
#734);
#16=SHAPE_DEFINITION_REPRESENTATION(#17,#26);
#17=PRODUCT_DEFINITION_SHAPE('','',#18);
#18=PRODUCT_DEFINITION(' ','',#20,#19);
#19=PRODUCT_DEFINITION_CONTEXT('part definition',#25,'design');
#20=PRODUCT_DEFINITION_FORMATION_WITH_SPECIFIED_SOURCE(' ',' ',#22,
 .NOT_KNOWN.);
#21=PRODUCT_RELATED_PRODUCT_CATEGORY('part','',(#22));
#22=PRODUCT('111164404mod000_01','111164404mod000_01',' ',(#23));
#23=PRODUCT_CONTEXT(' ',#25,'mechanical');
#24=APPLICATION_PROTOCOL_DEFINITION('international standard',
'automotive_design',2010,#25);
#25=APPLICATION_CONTEXT(
'core data for automotive mechanical design processes');
#26=SHAPE_REPRESENTATION('111164404mod000_01-None',(#444),#734);
#27=GEOMETRIC_CURVE_SET('None',(#622,#623,#624));
#28=SURFACE_STYLE_USAGE(.BOTH.,#29);
#29=SURFACE_SIDE_STYLE('',(#30));
#30=SURFACE_STYLE_FILL_AREA(#31);
#31=FILL_AREA_STYLE('',(#32));
#32=FILL_AREA_STYLE_COLOUR('',#443);
#33=MANIFOLD_SOLID_BREP('NOCUT',#34);
#34=CLOSED_SHELL('',(#108,#109,#110,#111,#112,#113,#114,#115,#116,#117,
#118,#119,#120,#121,#122,#123,#124,#125,#126,#127,#128,#129,#130,#131,#132,
#133,#134,#135,#136));
#35=TOROIDAL_SURFACE('',#489,66.,14.);
#36=LINE('',#673,#60);
#37=LINE('',#676,#61);
#38=LINE('',#678,#62);
#39=LINE('',#680,#63);
#40=LINE('',#682,#64);
#41=LINE('',#684,#65);
#42=LINE('',#686,#66);
#43=LINE('',#688,#67);
#44=LINE('',#690,#68);
#45=LINE('',#692,#69);
#46=LINE('',#694,#70);
#47=LINE('',#695,#71);
#48=LINE('',#697,#72);
#49=LINE('',#700,#73);
#50=LINE('',#702,#74);
#51=LINE('',#704,#75);
#52=LINE('',#706,#76);
#53=LINE('',#709,#77);
#54=LINE('',#711,#78);
#55=LINE('',#713,#79);
#56=LINE('',#717,#80);
#57=LINE('',#718,#81);
#58=LINE('',#728,#82);
#59=LINE('',#730,#83);
#60=VECTOR('',#563,1.);
#61=VECTOR('',#564,1.);
#62=VECTOR('',#565,1.);
#63=VECTOR('',#566,1.);
#64=VECTOR('',#569,1.);
#65=VECTOR('',#570,1.);
#66=VECTOR('',#571,1.);
#67=VECTOR('',#574,1.);
#68=VECTOR('',#575,1.);
#69=VECTOR('',#576,1.);
#70=VECTOR('',#579,1.);
#71=VECTOR('',#580,1.);
#72=VECTOR('',#583,1.);
#73=VECTOR('',#584,1.);
#74=VECTOR('',#585,1.);
#75=VECTOR('',#586,1.);
#76=VECTOR('',#589,1.);
#77=VECTOR('',#590,1.);
#78=VECTOR('',#591,1.);
#79=VECTOR('',#592,1.);
#80=VECTOR('',#597,1.);
#81=VECTOR('',#598,1.);
#82=VECTOR('',#613,1.);
#83=VECTOR('',#616,1.);
#84=CONICAL_SURFACE('',#458,27.5140814652246,8.30000000000003);
#85=CONICAL_SURFACE('',#466,47.125,86.2394089665979);
#86=CONICAL_SURFACE('',#470,47.125,86.2394089665979);
#87=CONICAL_SURFACE('',#490,80.,80.);
#88=FACE_OUTER_BOUND('',#193,.T.);
#89=FACE_OUTER_BOUND('',#214,.T.);
#90=FACE_OUTER_BOUND('',#217,.T.);
#91=FACE_OUTER_BOUND('',#218,.T.);
#92=FACE_OUTER_BOUND('',#219,.T.);
#93=FACE_OUTER_BOUND('',#220,.T.);
#94=FACE_OUTER_BOUND('',#221,.T.);
#95=FACE_OUTER_BOUND('',#222,.T.);
#96=FACE_OUTER_BOUND('',#233,.T.);
#97=FACE_OUTER_BOUND('',#234,.T.);
#98=FACE_OUTER_BOUND('',#235,.T.);
#99=FACE_OUTER_BOUND('',#236,.T.);
#100=CYLINDRICAL_SURFACE('',#453,12.5);
#101=CYLINDRICAL_SURFACE('',#460,34.925);
#102=CYLINDRICAL_SURFACE('',#464,48.75);
#103=CYLINDRICAL_SURFACE('',#468,45.5);
#104=CYLINDRICAL_SURFACE('',#471,48.75);
#105=CYLINDRICAL_SURFACE('',#473,40.);
#106=CYLINDRICAL_SURFACE('',#477,20.);
#107=CYLINDRICAL_SURFACE('',#487,80.);
#108=ADVANCED_FACE('',(#153,#154),#137,.T.);
#109=ADVANCED_FACE('',(#155,#156),#100,.F.);
#110=ADVANCED_FACE('',(#88),#138,.F.);
#111=ADVANCED_FACE('',(#157,#158),#139,.T.);
#112=ADVANCED_FACE('',(#159,#160),#84,.T.);
#113=ADVANCED_FACE('',(#161,#162),#101,.T.);
#114=ADVANCED_FACE('',(#163,#164),#140,.T.);
#115=ADVANCED_FACE('',(#165,#166),#102,.T.);
#116=ADVANCED_FACE('',(#167,#168),#85,.T.);
#117=ADVANCED_FACE('',(#169,#170),#103,.T.);
#118=ADVANCED_FACE('',(#171,#172),#86,.T.);
#119=ADVANCED_FACE('',(#173,#174),#104,.T.);
#120=ADVANCED_FACE('',(#175,#176),#105,.T.);
#121=ADVANCED_FACE('',(#89),#141,.F.);
#122=ADVANCED_FACE('',(#177,#178),#106,.T.);
#123=ADVANCED_FACE('',(#90),#142,.T.);
#124=ADVANCED_FACE('',(#91),#143,.T.);
#125=ADVANCED_FACE('',(#92),#144,.T.);
#126=ADVANCED_FACE('',(#93),#145,.T.);
#127=ADVANCED_FACE('',(#94),#146,.T.);
#128=ADVANCED_FACE('',(#95),#147,.T.);
#129=ADVANCED_FACE('',(#179,#180,#181,#182),#148,.F.);
#130=ADVANCED_FACE('',(#183,#184),#107,.T.);
#131=ADVANCED_FACE('',(#185,#186),#35,.T.);
#132=ADVANCED_FACE('',(#187,#188),#87,.T.);
#133=ADVANCED_FACE('',(#96),#149,.F.);
#134=ADVANCED_FACE('',(#97),#150,.T.);
#135=ADVANCED_FACE('',(#98),#151,.T.);
#136=ADVANCED_FACE('',(#99),#152,.F.);
#137=PLANE('',#450);
#138=PLANE('',#454);
#139=PLANE('',#456);
#140=PLANE('',#462);
#141=PLANE('',#475);
#142=PLANE('',#478);
#143=PLANE('',#479);
#144=PLANE('',#480);
#145=PLANE('',#481);
#146=PLANE('',#482);
#147=PLANE('',#483);
#148=PLANE('',#485);
#149=PLANE('',#491);
#150=PLANE('',#492);
#151=PLANE('',#493);
#152=PLANE('',#494);
#153=FACE_BOUND('',#189,.T.);
#154=FACE_BOUND('',#190,.T.);
#155=FACE_BOUND('',#191,.T.);
#156=FACE_BOUND('',#192,.T.);
#157=FACE_BOUND('',#194,.T.);
#158=FACE_BOUND('',#195,.T.);
#159=FACE_BOUND('',#196,.T.);
#160=FACE_BOUND('',#197,.T.);
#161=FACE_BOUND('',#198,.T.);
#162=FACE_BOUND('',#199,.T.);
#163=FACE_BOUND('',#200,.T.);
#164=FACE_BOUND('',#201,.T.);
#165=FACE_BOUND('',#202,.T.);
#166=FACE_BOUND('',#203,.T.);
#167=FACE_BOUND('',#204,.T.);
#168=FACE_BOUND('',#205,.T.);
#169=FACE_BOUND('',#206,.T.);
#170=FACE_BOUND('',#207,.T.);
#171=FACE_BOUND('',#208,.T.);
#172=FACE_BOUND('',#209,.T.);
#173=FACE_BOUND('',#210,.T.);
#174=FACE_BOUND('',#211,.T.);
#175=FACE_BOUND('',#212,.T.);
#176=FACE_BOUND('',#213,.T.);
#177=FACE_BOUND('',#215,.T.);
#178=FACE_BOUND('',#216,.T.);
#179=FACE_BOUND('',#223,.T.);
#180=FACE_BOUND('',#224,.T.);
#181=FACE_BOUND('',#225,.T.);
#182=FACE_BOUND('',#226,.T.);
#183=FACE_BOUND('',#227,.T.);
#184=FACE_BOUND('',#228,.T.);
#185=FACE_BOUND('',#229,.T.);
#186=FACE_BOUND('',#230,.T.);
#187=FACE_BOUND('',#231,.T.);
#188=FACE_BOUND('',#232,.T.);
#189=EDGE_LOOP('',(#237));
#190=EDGE_LOOP('',(#238));
#191=EDGE_LOOP('',(#239));
#192=EDGE_LOOP('',(#240));
#193=EDGE_LOOP('',(#241));
#194=EDGE_LOOP('',(#242));
#195=EDGE_LOOP('',(#243));
#196=EDGE_LOOP('',(#244));
#197=EDGE_LOOP('',(#245));
#198=EDGE_LOOP('',(#246));
#199=EDGE_LOOP('',(#247));
#200=EDGE_LOOP('',(#248));
#201=EDGE_LOOP('',(#249));
#202=EDGE_LOOP('',(#250));
#203=EDGE_LOOP('',(#251));
#204=EDGE_LOOP('',(#252));
#205=EDGE_LOOP('',(#253));
#206=EDGE_LOOP('',(#254));
#207=EDGE_LOOP('',(#255));
#208=EDGE_LOOP('',(#256));
#209=EDGE_LOOP('',(#257));
#210=EDGE_LOOP('',(#258));
#211=EDGE_LOOP('',(#259));
#212=EDGE_LOOP('',(#260));
#213=EDGE_LOOP('',(#261));
#214=EDGE_LOOP('',(#262));
#215=EDGE_LOOP('',(#263));
#216=EDGE_LOOP('',(#264));
#217=EDGE_LOOP('',(#265,#266,#267,#268));
#218=EDGE_LOOP('',(#269,#270,#271,#272));
#219=EDGE_LOOP('',(#273,#274,#275,#276));
#220=EDGE_LOOP('',(#277,#278,#279,#280));
#221=EDGE_LOOP('',(#281,#282,#283,#284));
#222=EDGE_LOOP('',(#285,#286,#287,#288));
#223=EDGE_LOOP('',(#289));
#224=EDGE_LOOP('',(#290,#291,#292,#293));
#225=EDGE_LOOP('',(#294,#295,#296,#297));
#226=EDGE_LOOP('',(#298));
#227=EDGE_LOOP('',(#299));
#228=EDGE_LOOP('',(#300));
#229=EDGE_LOOP('',(#301));
#230=EDGE_LOOP('',(#302));
#231=EDGE_LOOP('',(#303));
#232=EDGE_LOOP('',(#304));
#233=EDGE_LOOP('',(#305,#306,#307,#308));
#234=EDGE_LOOP('',(#309,#310,#311,#312));
#235=EDGE_LOOP('',(#313,#314,#315,#316));
#236=EDGE_LOOP('',(#317,#318,#319,#320));
#237=ORIENTED_EDGE('',*,*,#355,.T.);
#238=ORIENTED_EDGE('',*,*,#356,.T.);
#239=ORIENTED_EDGE('',*,*,#357,.T.);
#240=ORIENTED_EDGE('',*,*,#358,.F.);
#241=ORIENTED_EDGE('',*,*,#357,.F.);
#242=ORIENTED_EDGE('',*,*,#359,.F.);
#243=ORIENTED_EDGE('',*,*,#358,.T.);
#244=ORIENTED_EDGE('',*,*,#359,.T.);
#245=ORIENTED_EDGE('',*,*,#360,.F.);
#246=ORIENTED_EDGE('',*,*,#360,.T.);
#247=ORIENTED_EDGE('',*,*,#361,.F.);
#248=ORIENTED_EDGE('',*,*,#361,.T.);
#249=ORIENTED_EDGE('',*,*,#362,.F.);
#250=ORIENTED_EDGE('',*,*,#362,.T.);
#251=ORIENTED_EDGE('',*,*,#363,.F.);
#252=ORIENTED_EDGE('',*,*,#363,.T.);
#253=ORIENTED_EDGE('',*,*,#364,.F.);
#254=ORIENTED_EDGE('',*,*,#364,.T.);
#255=ORIENTED_EDGE('',*,*,#365,.F.);
#256=ORIENTED_EDGE('',*,*,#365,.T.);
#257=ORIENTED_EDGE('',*,*,#366,.F.);
#258=ORIENTED_EDGE('',*,*,#366,.T.);
#259=ORIENTED_EDGE('',*,*,#355,.F.);
#260=ORIENTED_EDGE('',*,*,#356,.F.);
#261=ORIENTED_EDGE('',*,*,#367,.T.);
#262=ORIENTED_EDGE('',*,*,#368,.F.);
#263=ORIENTED_EDGE('',*,*,#368,.T.);
#264=ORIENTED_EDGE('',*,*,#369,.T.);
#265=ORIENTED_EDGE('',*,*,#370,.T.);
#266=ORIENTED_EDGE('',*,*,#371,.F.);
#267=ORIENTED_EDGE('',*,*,#372,.F.);
#268=ORIENTED_EDGE('',*,*,#373,.T.);
#269=ORIENTED_EDGE('',*,*,#372,.T.);
#270=ORIENTED_EDGE('',*,*,#374,.F.);
#271=ORIENTED_EDGE('',*,*,#375,.F.);
#272=ORIENTED_EDGE('',*,*,#376,.T.);
#273=ORIENTED_EDGE('',*,*,#375,.T.);
#274=ORIENTED_EDGE('',*,*,#377,.F.);
#275=ORIENTED_EDGE('',*,*,#378,.F.);
#276=ORIENTED_EDGE('',*,*,#379,.T.);
#277=ORIENTED_EDGE('',*,*,#380,.F.);
#278=ORIENTED_EDGE('',*,*,#370,.F.);
#279=ORIENTED_EDGE('',*,*,#381,.T.);
#280=ORIENTED_EDGE('',*,*,#378,.T.);
#281=ORIENTED_EDGE('',*,*,#382,.T.);
#282=ORIENTED_EDGE('',*,*,#383,.F.);
#283=ORIENTED_EDGE('',*,*,#384,.F.);
#284=ORIENTED_EDGE('',*,*,#385,.T.);
#285=ORIENTED_EDGE('',*,*,#386,.T.);
#286=ORIENTED_EDGE('',*,*,#387,.F.);
#287=ORIENTED_EDGE('',*,*,#388,.F.);
#288=ORIENTED_EDGE('',*,*,#389,.T.);
#289=ORIENTED_EDGE('',*,*,#390,.F.);
#290=ORIENTED_EDGE('',*,*,#383,.T.);
#291=ORIENTED_EDGE('',*,*,#391,.T.);
#292=ORIENTED_EDGE('',*,*,#387,.T.);
#293=ORIENTED_EDGE('',*,*,#392,.T.);
#294=ORIENTED_EDGE('',*,*,#374,.T.);
#295=ORIENTED_EDGE('',*,*,#371,.T.);
#296=ORIENTED_EDGE('',*,*,#380,.T.);
#297=ORIENTED_EDGE('',*,*,#377,.T.);
#298=ORIENTED_EDGE('',*,*,#369,.F.);
#299=ORIENTED_EDGE('',*,*,#393,.T.);
#300=ORIENTED_EDGE('',*,*,#390,.T.);
#301=ORIENTED_EDGE('',*,*,#393,.F.);
#302=ORIENTED_EDGE('',*,*,#394,.F.);
#303=ORIENTED_EDGE('',*,*,#394,.T.);
#304=ORIENTED_EDGE('',*,*,#367,.F.);
#305=ORIENTED_EDGE('',*,*,#376,.F.);
#306=ORIENTED_EDGE('',*,*,#379,.F.);
#307=ORIENTED_EDGE('',*,*,#381,.F.);
#308=ORIENTED_EDGE('',*,*,#373,.F.);
#309=ORIENTED_EDGE('',*,*,#392,.F.);
#310=ORIENTED_EDGE('',*,*,#386,.F.);
#311=ORIENTED_EDGE('',*,*,#395,.T.);
#312=ORIENTED_EDGE('',*,*,#384,.T.);
#313=ORIENTED_EDGE('',*,*,#391,.F.);
#314=ORIENTED_EDGE('',*,*,#382,.F.);
#315=ORIENTED_EDGE('',*,*,#396,.T.);
#316=ORIENTED_EDGE('',*,*,#388,.T.);
#317=ORIENTED_EDGE('',*,*,#395,.F.);
#318=ORIENTED_EDGE('',*,*,#389,.F.);
#319=ORIENTED_EDGE('',*,*,#396,.F.);
#320=ORIENTED_EDGE('',*,*,#385,.F.);
#321=VERTEX_POINT('',#629);
#322=VERTEX_POINT('',#631);
#323=VERTEX_POINT('',#634);
#324=VERTEX_POINT('',#636);
#325=VERTEX_POINT('',#640);
#326=VERTEX_POINT('',#643);
#327=VERTEX_POINT('',#646);
#328=VERTEX_POINT('',#649);
#329=VERTEX_POINT('',#652);
#330=VERTEX_POINT('',#655);
#331=VERTEX_POINT('',#658);
#332=VERTEX_POINT('',#661);
#333=VERTEX_POINT('',#665);
#334=VERTEX_POINT('',#668);
#335=VERTEX_POINT('',#671);
#336=VERTEX_POINT('',#674);
#337=VERTEX_POINT('',#675);
#338=VERTEX_POINT('',#677);
#339=VERTEX_POINT('',#679);
#340=VERTEX_POINT('',#683);
#341=VERTEX_POINT('',#685);
#342=VERTEX_POINT('',#689);
#343=VERTEX_POINT('',#691);
#344=VERTEX_POINT('',#698);
#345=VERTEX_POINT('',#699);
#346=VERTEX_POINT('',#701);
#347=VERTEX_POINT('',#703);
#348=VERTEX_POINT('',#707);
#349=VERTEX_POINT('',#708);
#350=VERTEX_POINT('',#710);
#351=VERTEX_POINT('',#712);
#352=VERTEX_POINT('',#716);
#353=VERTEX_POINT('',#721);
#354=VERTEX_POINT('',#724);
#355=EDGE_CURVE('',#321,#321,#397,.T.);
#356=EDGE_CURVE('',#322,#322,#398,.T.);
#357=EDGE_CURVE('',#323,#323,#399,.T.);
#358=EDGE_CURVE('',#324,#324,#400,.T.);
#359=EDGE_CURVE('',#325,#325,#401,.T.);
#360=EDGE_CURVE('',#326,#326,#402,.T.);
#361=EDGE_CURVE('',#327,#327,#403,.T.);
#362=EDGE_CURVE('',#328,#328,#404,.T.);
#363=EDGE_CURVE('',#329,#329,#405,.T.);
#364=EDGE_CURVE('',#330,#330,#406,.T.);
#365=EDGE_CURVE('',#331,#331,#407,.T.);
#366=EDGE_CURVE('',#332,#332,#408,.T.);
#367=EDGE_CURVE('',#333,#333,#409,.T.);
#368=EDGE_CURVE('',#334,#334,#410,.T.);
#369=EDGE_CURVE('',#335,#335,#411,.T.);
#370=EDGE_CURVE('',#336,#337,#36,.T.);
#371=EDGE_CURVE('',#338,#337,#37,.T.);
#372=EDGE_CURVE('',#339,#338,#38,.T.);
#373=EDGE_CURVE('',#339,#336,#39,.T.);
#374=EDGE_CURVE('',#340,#338,#40,.T.);
#375=EDGE_CURVE('',#341,#340,#41,.T.);
#376=EDGE_CURVE('',#341,#339,#42,.T.);
#377=EDGE_CURVE('',#342,#340,#43,.T.);
#378=EDGE_CURVE('',#343,#342,#44,.T.);
#379=EDGE_CURVE('',#343,#341,#45,.T.);
#380=EDGE_CURVE('',#337,#342,#46,.T.);
#381=EDGE_CURVE('',#336,#343,#47,.T.);
#382=EDGE_CURVE('',#344,#345,#48,.T.);
#383=EDGE_CURVE('',#346,#345,#49,.T.);
#384=EDGE_CURVE('',#347,#346,#50,.T.);
#385=EDGE_CURVE('',#347,#344,#51,.T.);
#386=EDGE_CURVE('',#348,#349,#52,.T.);
#387=EDGE_CURVE('',#350,#349,#53,.T.);
#388=EDGE_CURVE('',#351,#350,#54,.T.);
#389=EDGE_CURVE('',#351,#348,#55,.T.);
#390=EDGE_CURVE('',#352,#352,#412,.T.);
#391=EDGE_CURVE('',#345,#350,#56,.T.);
#392=EDGE_CURVE('',#349,#346,#57,.T.);
#393=EDGE_CURVE('',#353,#353,#413,.T.);
#394=EDGE_CURVE('',#354,#354,#414,.T.);
#395=EDGE_CURVE('',#348,#347,#58,.T.);
#396=EDGE_CURVE('',#344,#351,#59,.T.);
#397=CIRCLE('',#448,48.75);
#398=CIRCLE('',#449,40.);
#399=CIRCLE('',#451,12.5);
#400=CIRCLE('',#452,12.5);
#401=CIRCLE('',#455,20.1031629304493);
#402=CIRCLE('',#457,34.925);
#403=CIRCLE('',#459,34.925);
#404=CIRCLE('',#461,48.75);
#405=CIRCLE('',#463,48.75);
#406=CIRCLE('',#465,45.5);
#407=CIRCLE('',#467,45.5);
#408=CIRCLE('',#469,48.75);
#409=CIRCLE('',#472,40.);
#410=CIRCLE('',#474,20.);
#411=CIRCLE('',#476,20.);
#412=CIRCLE('',#484,80.);
#413=CIRCLE('',#486,80.);
#414=CIRCLE('',#488,68.431074487337);
#415=CURVE_STYLE('',#418,POSITIVE_LENGTH_MEASURE(0.18),#442);
#416=CURVE_STYLE('',#419,POSITIVE_LENGTH_MEASURE(0.18),#442);
#417=CURVE_STYLE('',#420,POSITIVE_LENGTH_MEASURE(0.18),#442);
#418=DRAUGHTING_PRE_DEFINED_CURVE_FONT('continuous');
#419=DRAUGHTING_PRE_DEFINED_CURVE_FONT('continuous');
#420=DRAUGHTING_PRE_DEFINED_CURVE_FONT('continuous');
#421=PRESENTATION_LAYER_ASSIGNMENT('1','Layer 1',(#622,#623,#624,#445,#446,
#447,#33));
#422=STYLED_ITEM('',(#429),#622);
#423=STYLED_ITEM('',(#430),#623);
#424=STYLED_ITEM('',(#431),#624);
#425=STYLED_ITEM('',(#432),#445);
#426=STYLED_ITEM('',(#433),#446);
#427=STYLED_ITEM('',(#434),#447);
#428=STYLED_ITEM('',(#435),#33);
#429=PRESENTATION_STYLE_ASSIGNMENT((#436));
#430=PRESENTATION_STYLE_ASSIGNMENT((#437));
#431=PRESENTATION_STYLE_ASSIGNMENT((#438));
#432=PRESENTATION_STYLE_ASSIGNMENT((#415));
#433=PRESENTATION_STYLE_ASSIGNMENT((#416));
#434=PRESENTATION_STYLE_ASSIGNMENT((#417));
#435=PRESENTATION_STYLE_ASSIGNMENT((#28));
#436=POINT_STYLE('',#439,POSITIVE_LENGTH_MEASURE(3.),#442);
#437=POINT_STYLE('',#440,POSITIVE_LENGTH_MEASURE(3.),#442);
#438=POINT_STYLE('',#441,POSITIVE_LENGTH_MEASURE(3.),#442);
#439=PRE_DEFINED_POINT_MARKER_SYMBOL('plus');
#440=PRE_DEFINED_POINT_MARKER_SYMBOL('plus');
#441=PRE_DEFINED_POINT_MARKER_SYMBOL('plus');
#442=COLOUR_RGB('Pale Maroon',0.811749446860456,0.603921568627451,0.611749446860456);
#443=COLOUR_RGB('TLS_NOCUT',0.501960784313725,0.501960784313725,0.501960784313725);
#444=AXIS2_PLACEMENT_3D('',#621,#495,#496);
#445=AXIS2_PLACEMENT_3D('PCS',#625,#497,#498);
#446=AXIS2_PLACEMENT_3D('CSW',#626,#499,#500);
#447=AXIS2_PLACEMENT_3D('MCS',#627,#501,#502);
#448=AXIS2_PLACEMENT_3D('',#628,#503,#504);
#449=AXIS2_PLACEMENT_3D('',#630,#505,#506);
#450=AXIS2_PLACEMENT_3D('',#632,#507,#508);
#451=AXIS2_PLACEMENT_3D('',#633,#509,#510);
#452=AXIS2_PLACEMENT_3D('',#635,#511,#512);
#453=AXIS2_PLACEMENT_3D('',#637,#513,#514);
#454=AXIS2_PLACEMENT_3D('',#638,#515,#516);
#455=AXIS2_PLACEMENT_3D('',#639,#517,#518);
#456=AXIS2_PLACEMENT_3D('',#641,#519,#520);
#457=AXIS2_PLACEMENT_3D('',#642,#521,#522);
#458=AXIS2_PLACEMENT_3D('',#644,#523,#524);
#459=AXIS2_PLACEMENT_3D('',#645,#525,#526);
#460=AXIS2_PLACEMENT_3D('',#647,#527,#528);
#461=AXIS2_PLACEMENT_3D('',#648,#529,#530);
#462=AXIS2_PLACEMENT_3D('',#650,#531,#532);
#463=AXIS2_PLACEMENT_3D('',#651,#533,#534);
#464=AXIS2_PLACEMENT_3D('',#653,#535,#536);
#465=AXIS2_PLACEMENT_3D('',#654,#537,#538);
#466=AXIS2_PLACEMENT_3D('',#656,#539,#540);
#467=AXIS2_PLACEMENT_3D('',#657,#541,#542);
#468=AXIS2_PLACEMENT_3D('',#659,#543,#544);
#469=AXIS2_PLACEMENT_3D('',#660,#545,#546);
#470=AXIS2_PLACEMENT_3D('',#662,#547,#548);
#471=AXIS2_PLACEMENT_3D('',#663,#549,#550);
#472=AXIS2_PLACEMENT_3D('',#664,#551,#552);
#473=AXIS2_PLACEMENT_3D('',#666,#553,#554);
#474=AXIS2_PLACEMENT_3D('',#667,#555,#556);
#475=AXIS2_PLACEMENT_3D('',#669,#557,#558);
#476=AXIS2_PLACEMENT_3D('',#670,#559,#560);
#477=AXIS2_PLACEMENT_3D('',#672,#561,#562);
#478=AXIS2_PLACEMENT_3D('',#681,#567,#568);
#479=AXIS2_PLACEMENT_3D('',#687,#572,#573);
#480=AXIS2_PLACEMENT_3D('',#693,#577,#578);
#481=AXIS2_PLACEMENT_3D('',#696,#581,#582);
#482=AXIS2_PLACEMENT_3D('',#705,#587,#588);
#483=AXIS2_PLACEMENT_3D('',#714,#593,#594);
#484=AXIS2_PLACEMENT_3D('',#715,#595,#596);
#485=AXIS2_PLACEMENT_3D('',#719,#599,#600);
#486=AXIS2_PLACEMENT_3D('',#720,#601,#602);
#487=AXIS2_PLACEMENT_3D('',#722,#603,#604);
#488=AXIS2_PLACEMENT_3D('',#723,#605,#606);
#489=AXIS2_PLACEMENT_3D('',#725,#607,#608);
#490=AXIS2_PLACEMENT_3D('',#726,#609,#610);
#491=AXIS2_PLACEMENT_3D('',#727,#611,#612);
#492=AXIS2_PLACEMENT_3D('',#729,#614,#615);
#493=AXIS2_PLACEMENT_3D('',#731,#617,#618);
#494=AXIS2_PLACEMENT_3D('',#732,#619,#620);
#495=DIRECTION('',(0.,0.,1.));
#496=DIRECTION('',(1.,0.,0.));
#497=DIRECTION('',(0.,0.,1.));
#498=DIRECTION('',(1.,0.,0.));
#499=DIRECTION('',(0.,0.,1.));
#500=DIRECTION('',(1.,0.,0.));
#501=DIRECTION('',(0.,0.,1.));
#502=DIRECTION('',(1.,0.,0.));
#503=DIRECTION('',(0.,0.,-1.));
#504=DIRECTION('',(0.,1.,0.));
#505=DIRECTION('',(0.,0.,1.));
#506=DIRECTION('',(-1.,0.,0.));
#507=DIRECTION('',(0.,0.,-1.));
#508=DIRECTION('',(-1.,0.,0.));
#509=DIRECTION('',(6.12303176911189E-017,0.,-1.));
#510=DIRECTION('',(-1.,0.,0.));
#511=DIRECTION('',(0.,0.,-1.));
#512=DIRECTION('',(-1.,0.,0.));
#513=DIRECTION('',(6.12303176911189E-017,0.,-1.));
#514=DIRECTION('',(1.,0.,0.));
#515=DIRECTION('',(6.12303176911189E-017,0.,-1.));
#516=DIRECTION('',(-1.,0.,-6.24500451351651E-017));
#517=DIRECTION('',(0.,0.,-1.));
#518=DIRECTION('',(0.,1.,0.));
#519=DIRECTION('',(0.,0.,1.));
#520=DIRECTION('',(1.,0.,0.));
#521=DIRECTION('',(0.,0.,-1.));
#522=DIRECTION('',(0.,1.,0.));
#523=DIRECTION('',(0.,0.,-1.));
#524=DIRECTION('',(0.,-1.,-2.40102482672547E-016));
#525=DIRECTION('',(0.,0.,-1.));
#526=DIRECTION('',(0.,1.,0.));
#527=DIRECTION('',(0.,0.,-1.));
#528=DIRECTION('',(0.,-1.,0.));
#529=DIRECTION('',(0.,0.,-1.));
#530=DIRECTION('',(0.,1.,0.));
#531=DIRECTION('',(0.,0.,1.));
#532=DIRECTION('',(1.,0.,0.));
#533=DIRECTION('',(0.,0.,-1.));
#534=DIRECTION('',(0.,1.,0.));
#535=DIRECTION('',(0.,0.,-1.));
#536=DIRECTION('',(0.,-1.,0.));
#537=DIRECTION('',(0.,0.,-1.));
#538=DIRECTION('',(0.,1.,0.));
#539=DIRECTION('',(0.,0.,1.));
#540=DIRECTION('',(0.,-1.,-1.59137630043843E-018));
#541=DIRECTION('',(0.,0.,-1.));
#542=DIRECTION('',(0.,1.,0.));
#543=DIRECTION('',(0.,0.,-1.));
#544=DIRECTION('',(0.,-1.,0.));
#545=DIRECTION('',(0.,0.,-1.));
#546=DIRECTION('',(0.,1.,0.));
#547=DIRECTION('',(0.,0.,-1.));
#548=DIRECTION('',(0.,-1.,4.54678942982409E-019));
#549=DIRECTION('',(0.,0.,-1.));
#550=DIRECTION('',(0.,-1.,0.));
#551=DIRECTION('',(0.,0.,1.));
#552=DIRECTION('',(1.,0.,0.));
#553=DIRECTION('',(0.,0.,1.));
#554=DIRECTION('',(0.,1.,0.));
#555=DIRECTION('',(0.,0.,1.));
#556=DIRECTION('',(1.,0.,0.));
#557=DIRECTION('',(0.,0.,1.));
#558=DIRECTION('',(1.,0.,0.));
#559=DIRECTION('',(0.,0.,-1.));
#560=DIRECTION('',(-1.,0.,0.));
#561=DIRECTION('',(0.,0.,-1.));
#562=DIRECTION('',(1.,0.,0.));
#563=DIRECTION('',(0.,0.,1.));
#564=DIRECTION('',(0.,-1.,0.));
#565=DIRECTION('',(0.,0.,1.));
#566=DIRECTION('',(0.,-1.,0.));
#567=DIRECTION('',(-1.,0.,0.));
#568=DIRECTION('',(0.,0.,-1.));
#569=DIRECTION('',(-1.,0.,0.));
#570=DIRECTION('',(0.,0.,1.));
#571=DIRECTION('',(-1.,0.,0.));
#572=DIRECTION('',(0.,1.,0.));
#573=DIRECTION('',(0.,0.,-1.));
#574=DIRECTION('',(0.,1.,0.));
#575=DIRECTION('',(0.,0.,1.));
#576=DIRECTION('',(0.,1.,0.));
#577=DIRECTION('',(1.,0.,0.));
#578=DIRECTION('',(0.,0.,1.));
#579=DIRECTION('',(1.,0.,0.));
#580=DIRECTION('',(1.,0.,0.));
#581=DIRECTION('',(0.,-1.,0.));
#582=DIRECTION('',(0.,0.,1.));
#583=DIRECTION('',(0.,0.,1.));
#584=DIRECTION('',(0.,1.,0.));
#585=DIRECTION('',(0.,0.,1.));
#586=DIRECTION('',(1.22460635382238E-016,1.,0.));
#587=DIRECTION('',(1.,0.,0.));
#588=DIRECTION('',(0.,0.,-1.));
#589=DIRECTION('',(0.,0.,1.));
#590=DIRECTION('',(0.,-1.,0.));
#591=DIRECTION('',(0.,0.,1.));
#592=DIRECTION('',(-1.22460635382238E-016,-1.,0.));
#593=DIRECTION('',(-1.,0.,0.));
#594=DIRECTION('',(0.,0.,1.));
#595=DIRECTION('',(0.,0.,1.));
#596=DIRECTION('',(1.,0.,0.));
#597=DIRECTION('',(-1.,1.22460635382238E-016,0.));
#598=DIRECTION('',(1.,-1.22460635382238E-016,0.));
#599=DIRECTION('',(0.,0.,1.));
#600=DIRECTION('',(1.,0.,0.));
#601=DIRECTION('',(0.,0.,-1.));
#602=DIRECTION('',(-1.,0.,0.));
#603=DIRECTION('',(0.,0.,1.));
#604=DIRECTION('',(1.,0.,0.));
#605=DIRECTION('',(0.,0.,1.));
#606=DIRECTION('',(1.,0.,0.));
#607=DIRECTION('',(0.,0.,-1.));
#608=DIRECTION('',(-1.,0.,0.));
#609=DIRECTION('',(0.,0.,-1.));
#610=DIRECTION('',(-1.,0.,-1.32714471898463E-017));
#611=DIRECTION('',(0.,0.,1.));
#612=DIRECTION('',(-1.,0.,0.));
#613=DIRECTION('',(1.,-1.22460635382238E-016,0.));
#614=DIRECTION('',(-1.22460635382238E-016,-1.,0.));
#615=DIRECTION('',(0.,0.,1.));
#616=DIRECTION('',(-1.,1.22460635382238E-016,0.));
#617=DIRECTION('',(1.22460635382238E-016,1.,0.));
#618=DIRECTION('',(0.,0.,-1.));
#619=DIRECTION('',(0.,0.,1.));
#620=DIRECTION('',(1.,-1.23165366794353E-016,0.));
#621=CARTESIAN_POINT('',(0.,0.,0.));
#622=CARTESIAN_POINT('',(0.,0.,0.));
#623=CARTESIAN_POINT('',(0.,0.,-75.));
#624=CARTESIAN_POINT('',(0.,0.,0.));
#625=CARTESIAN_POINT('',(0.,0.,0.));
#626=CARTESIAN_POINT('',(0.,0.,-75.));
#627=CARTESIAN_POINT('',(0.,0.,0.));
#628=CARTESIAN_POINT('',(0.,0.,-19.1));
#629=CARTESIAN_POINT('',(0.,48.75,-19.1));
#630=CARTESIAN_POINT('',(0.,0.,-19.1));
#631=CARTESIAN_POINT('',(-40.,0.,-19.1));
#632=CARTESIAN_POINT('',(0.,24.375,-19.1));
#633=CARTESIAN_POINT('',(2.87782493148259E-015,0.,54.6));
#634=CARTESIAN_POINT('',(-12.5,0.,54.6));
#635=CARTESIAN_POINT('',(0.,0.,101.6));
#636=CARTESIAN_POINT('',(-12.5,0.,101.6));
#637=CARTESIAN_POINT('',(1.43891246574129E-015,0.,78.1));
#638=CARTESIAN_POINT('',(2.87782493148259E-015,0.,54.6));
#639=CARTESIAN_POINT('',(0.,0.,101.6));
#640=CARTESIAN_POINT('',(0.,20.1031629304493,101.6));
#641=CARTESIAN_POINT('',(0.,10.0515814652246,101.6));
#642=CARTESIAN_POINT('',(0.,0.,0.));
#643=CARTESIAN_POINT('',(0.,34.925,0.));
#644=CARTESIAN_POINT('',(0.,0.,50.8));
#645=CARTESIAN_POINT('',(0.,0.,-3.2));
#646=CARTESIAN_POINT('',(0.,34.925,-3.2));
#647=CARTESIAN_POINT('',(0.,0.,-1.6));
#648=CARTESIAN_POINT('',(0.,0.,-3.2));
#649=CARTESIAN_POINT('',(0.,48.75,-3.2));
#650=CARTESIAN_POINT('',(0.,41.8375,-3.2));
#651=CARTESIAN_POINT('',(0.,0.,-7.8552914871543));
#652=CARTESIAN_POINT('',(0.,48.75,-7.8552914871543));
#653=CARTESIAN_POINT('',(0.,0.,-5.52764574357715));
#654=CARTESIAN_POINT('',(0.,0.,-8.06891108675446));
#655=CARTESIAN_POINT('',(0.,45.5,-8.06891108675446));
#656=CARTESIAN_POINT('',(0.,0.,-7.96210128695438));
#657=CARTESIAN_POINT('',(0.,0.,-14.1310889132455));
#658=CARTESIAN_POINT('',(0.,45.5,-14.1310889132455));
#659=CARTESIAN_POINT('',(0.,0.,-11.1));
#660=CARTESIAN_POINT('',(0.,0.,-14.3447085128457));
#661=CARTESIAN_POINT('',(0.,48.75,-14.3447085128457));
#662=CARTESIAN_POINT('',(0.,0.,-14.2378987130456));
#663=CARTESIAN_POINT('',(0.,0.,-16.7223542564228));
#664=CARTESIAN_POINT('',(0.,0.,-39.));
#665=CARTESIAN_POINT('',(40.,0.,-39.));
#666=CARTESIAN_POINT('',(0.,0.,-19.05));
#667=CARTESIAN_POINT('',(0.,0.,-100.));
#668=CARTESIAN_POINT('',(20.,0.,-100.));
#669=CARTESIAN_POINT('',(-6.,0.,-100.));
#670=CARTESIAN_POINT('',(0.,0.,-75.));
#671=CARTESIAN_POINT('',(-20.,0.,-75.));
#672=CARTESIAN_POINT('',(0.,0.,-75.));
#673=CARTESIAN_POINT('',(28.25,-12.7000000000001,-90.));
#674=CARTESIAN_POINT('',(28.25,-12.7000000000001,-90.));
#675=CARTESIAN_POINT('',(28.25,-12.7000000000001,-75.));
#676=CARTESIAN_POINT('',(28.25,0.,-75.));
#677=CARTESIAN_POINT('',(28.25,12.6999999999999,-75.));
#678=CARTESIAN_POINT('',(28.25,12.6999999999999,-90.));
#679=CARTESIAN_POINT('',(28.25,12.6999999999999,-90.));
#680=CARTESIAN_POINT('',(28.25,12.6999999999999,-90.));
#681=CARTESIAN_POINT('',(28.25,-1.21656645261231E-013,-64.9));
#682=CARTESIAN_POINT('',(-19.9915,12.6999999999999,-75.));
#683=CARTESIAN_POINT('',(73.75,12.6999999999999,-75.));
#684=CARTESIAN_POINT('',(73.75,12.6999999999999,-90.));
#685=CARTESIAN_POINT('',(73.75,12.6999999999999,-90.));
#686=CARTESIAN_POINT('',(73.75,12.6999999999999,-90.));
#687=CARTESIAN_POINT('',(51.,12.6999999999999,-64.9));
#688=CARTESIAN_POINT('',(73.75,0.,-75.));
#689=CARTESIAN_POINT('',(73.75,-12.7000000000001,-75.));
#690=CARTESIAN_POINT('',(73.75,-12.7000000000001,-90.));
#691=CARTESIAN_POINT('',(73.75,-12.7000000000001,-90.));
#692=CARTESIAN_POINT('',(73.75,-12.7000000000001,-90.));
#693=CARTESIAN_POINT('',(73.75,-1.21656645261231E-013,-64.9));
#694=CARTESIAN_POINT('',(-19.9915,-12.7000000000001,-75.));
#695=CARTESIAN_POINT('',(28.25,-12.7000000000001,-90.));
#696=CARTESIAN_POINT('',(51.,-12.7000000000001,-64.9));
#697=CARTESIAN_POINT('',(-28.25,12.7000000000001,-90.));
#698=CARTESIAN_POINT('',(-28.25,12.7000000000001,-90.));
#699=CARTESIAN_POINT('',(-28.25,12.7000000000001,-75.));
#700=CARTESIAN_POINT('',(-28.25,0.,-75.));
#701=CARTESIAN_POINT('',(-28.25,-12.6999999999999,-75.));
#702=CARTESIAN_POINT('',(-28.25,-12.6999999999999,-90.));
#703=CARTESIAN_POINT('',(-28.25,-12.6999999999999,-90.));
#704=CARTESIAN_POINT('',(-28.25,-12.6999999999999,-90.));
#705=CARTESIAN_POINT('',(-28.25,2.16840434497101E-015,-64.9));
#706=CARTESIAN_POINT('',(-73.75,-12.6999999999999,-90.));
#707=CARTESIAN_POINT('',(-73.75,-12.6999999999999,-90.));
#708=CARTESIAN_POINT('',(-73.75,-12.6999999999999,-75.));
#709=CARTESIAN_POINT('',(-73.75,0.,-75.));
#710=CARTESIAN_POINT('',(-73.75,12.7000000000001,-75.));
#711=CARTESIAN_POINT('',(-73.75,12.7000000000001,-90.));
#712=CARTESIAN_POINT('',(-73.75,12.7000000000001,-90.));
#713=CARTESIAN_POINT('',(-73.75,12.7000000000001,-90.));
#714=CARTESIAN_POINT('',(-73.75,2.16840434497101E-015,-64.9));
#715=CARTESIAN_POINT('',(0.,0.,-75.));
#716=CARTESIAN_POINT('',(80.,0.,-75.));
#717=CARTESIAN_POINT('',(-28.25,12.7000000000001,-75.));
#718=CARTESIAN_POINT('',(-73.75,-12.6999999999999,-75.));
#719=CARTESIAN_POINT('',(-19.9915,0.,-75.));
#720=CARTESIAN_POINT('',(0.,0.,-57.8004740648205));
#721=CARTESIAN_POINT('',(-80.,0.,-57.8004740648205));
#722=CARTESIAN_POINT('',(0.,0.,-35.));
#723=CARTESIAN_POINT('',(0.,0.,-44.0131655226496));
#724=CARTESIAN_POINT('',(68.431074487337,0.,-44.0131655226496));
#725=CARTESIAN_POINT('',(0.,0.,-57.8004740648205));
#726=CARTESIAN_POINT('',(0.,0.,-46.0530792283386));
#727=CARTESIAN_POINT('',(28.25,12.6999999999999,-90.));
#728=CARTESIAN_POINT('',(-73.75,-12.6999999999999,-90.));
#729=CARTESIAN_POINT('',(-73.75,-12.6999999999999,-90.));
#730=CARTESIAN_POINT('',(-28.25,12.7000000000001,-90.));
#731=CARTESIAN_POINT('',(-28.25,12.7000000000001,-90.));
#732=CARTESIAN_POINT('',(-28.25,-12.6999999999999,-90.));
#733=MECHANICAL_DESIGN_GEOMETRIC_PRESENTATION_REPRESENTATION('',(#422,#423,
#424,#425,#426,#427,#428),#734);
#734=(
GEOMETRIC_REPRESENTATION_CONTEXT(3)
GLOBAL_UNCERTAINTY_ASSIGNED_CONTEXT((#735))
GLOBAL_UNIT_ASSIGNED_CONTEXT((#741,#737,#736))
REPRESENTATION_CONTEXT('1551355591523','TOP_LEVEL_ASSEMBLY_PART')
);
#735=UNCERTAINTY_MEASURE_WITH_UNIT(LENGTH_MEASURE(2.E-005),#741,
'DISTANCE_ACCURACY_VALUE','Maximum Tolerance applied to model');
#736=(
NAMED_UNIT(*)
SI_UNIT($,.STERADIAN.)
SOLID_ANGLE_UNIT()
);
#737=(
CONVERSION_BASED_UNIT('DEGREE',#739)
NAMED_UNIT(#738)
PLANE_ANGLE_UNIT()
);
#738=DIMENSIONAL_EXPONENTS(0.,0.,0.,0.,0.,0.,0.);
#739=PLANE_ANGLE_MEASURE_WITH_UNIT(PLANE_ANGLE_MEASURE(0.0174532925),#740);
#740=(
NAMED_UNIT(*)
PLANE_ANGLE_UNIT()
SI_UNIT($,.RADIAN.)
);
#741=(
LENGTH_UNIT()
NAMED_UNIT(*)
SI_UNIT(.MILLI.,.METRE.)
);
ENDSEC;
END-ISO-10303-21;
