ISO-10303-21;
HEADER;
/* Generated by software containing ST-Developer
 * from STEP Tools, Inc. (www.steptools.com) 
 */
/* OPTION: using custom schema-name function */

FILE_DESCRIPTION(
/* description */ (''),
/* implementation_level */ '2;1');

FILE_NAME(
/* name */ '1553853977562.stp',
/* time_stamp */ '2019-03-29T11:06:30+01:00',
/* author */ (''),
/* organization */ ('SMS'),
/* preprocessor_version */ 'ST-DEVELOPER v15',
/* originating_system */ 'SIEMENS PLM Software NX 8.5',
/* authorisation */ '');

FILE_SCHEMA (('AUTOMOTIVE_DESIGN { 1 0 10303 214 3 1 1 1 }'));
ENDSEC;

DATA;
#10=CONSTRUCTIVE_GEOMETRY_REPRESENTATION_RELATIONSHIP(
'supplemental geometry','',#26,#11);
#11=CONSTRUCTIVE_GEOMETRY_REPRESENTATION('supplemental geometry',(#155,
#156,#157),#250);
#12=GEOMETRICALLY_BOUNDED_WIREFRAME_SHAPE_REPRESENTATION(
'111155407mod000_01-None',(#27),#250);
#13=SHAPE_REPRESENTATION_RELATIONSHIP('None',
'relationship between 111155407mod000_01-None and 111155407mod000_01-N
one',#26,#15);
#14=SHAPE_REPRESENTATION_RELATIONSHIP('None',
'relationship between 111155407mod000_01-None and 111155407mod000_01-N
one',#26,#12);
#15=ADVANCED_BREP_SHAPE_REPRESENTATION('111155407mod000_01-None',(#33),
#250);
#16=SHAPE_DEFINITION_REPRESENTATION(#17,#26);
#17=PRODUCT_DEFINITION_SHAPE('','',#18);
#18=PRODUCT_DEFINITION(' ','',#20,#19);
#19=PRODUCT_DEFINITION_CONTEXT('part definition',#25,'design');
#20=PRODUCT_DEFINITION_FORMATION_WITH_SPECIFIED_SOURCE(' ',' ',#22,
 .NOT_KNOWN.);
#21=PRODUCT_RELATED_PRODUCT_CATEGORY('part','',(#22));
#22=PRODUCT('111155407mod000_01','111155407mod000_01',' ',(#23));
#23=PRODUCT_CONTEXT(' ',#25,'mechanical');
#24=APPLICATION_PROTOCOL_DEFINITION('international standard',
'automotive_design',2010,#25);
#25=APPLICATION_CONTEXT(
'core data for automotive mechanical design processes');
#26=SHAPE_REPRESENTATION('111155407mod000_01-None',(#154),#250);
#27=GEOMETRIC_CURVE_SET('None',(#218,#219,#220));
#28=SURFACE_STYLE_USAGE(.BOTH.,#29);
#29=SURFACE_SIDE_STYLE('',(#30));
#30=SURFACE_STYLE_FILL_AREA(#31);
#31=FILL_AREA_STYLE('',(#32));
#32=FILL_AREA_STYLE_COLOUR('',#153);
#33=MANIFOLD_SOLID_BREP('NOCUT',#34);
#34=CLOSED_SHELL('',(#54,#55,#56,#57,#58,#59,#60,#61,#62));
#35=CONICAL_SURFACE('',#167,11.0933026314612,75.0000000000001);
#36=CONICAL_SURFACE('',#171,10.15,25.0000000000001);
#37=CYLINDRICAL_SURFACE('',#162,10.);
#38=CYLINDRICAL_SURFACE('',#165,13.);
#39=CYLINDRICAL_SURFACE('',#174,8.);
#40=FACE_BOUND('',#70,.T.);
#41=FACE_BOUND('',#71,.T.);
#42=FACE_BOUND('',#72,.T.);
#43=FACE_BOUND('',#73,.T.);
#44=FACE_BOUND('',#74,.T.);
#45=FACE_BOUND('',#75,.T.);
#46=FACE_BOUND('',#76,.T.);
#47=FACE_BOUND('',#77,.T.);
#48=FACE_BOUND('',#78,.T.);
#49=FACE_BOUND('',#79,.T.);
#50=FACE_BOUND('',#81,.T.);
#51=FACE_BOUND('',#82,.T.);
#52=FACE_BOUND('',#83,.T.);
#53=FACE_BOUND('',#84,.T.);
#54=ADVANCED_FACE('',(#67),#63,.T.);
#55=ADVANCED_FACE('',(#40,#41),#37,.T.);
#56=ADVANCED_FACE('',(#42,#43),#38,.T.);
#57=ADVANCED_FACE('',(#44,#45),#35,.T.);
#58=ADVANCED_FACE('',(#46,#47),#64,.T.);
#59=ADVANCED_FACE('',(#48,#49),#36,.T.);
#60=ADVANCED_FACE('',(#68),#65,.T.);
#61=ADVANCED_FACE('',(#50,#51),#66,.F.);
#62=ADVANCED_FACE('',(#52,#53),#39,.F.);
#63=PLANE('',#159);
#64=PLANE('',#170);
#65=PLANE('',#172);
#66=PLANE('',#173);
#67=FACE_OUTER_BOUND('',#69,.T.);
#68=FACE_OUTER_BOUND('',#80,.T.);
#69=EDGE_LOOP('',(#85));
#70=EDGE_LOOP('',(#86));
#71=EDGE_LOOP('',(#87));
#72=EDGE_LOOP('',(#88));
#73=EDGE_LOOP('',(#89));
#74=EDGE_LOOP('',(#90));
#75=EDGE_LOOP('',(#91));
#76=EDGE_LOOP('',(#92));
#77=EDGE_LOOP('',(#93));
#78=EDGE_LOOP('',(#94));
#79=EDGE_LOOP('',(#95));
#80=EDGE_LOOP('',(#96));
#81=EDGE_LOOP('',(#97));
#82=EDGE_LOOP('',(#98));
#83=EDGE_LOOP('',(#99));
#84=EDGE_LOOP('',(#100));
#85=ORIENTED_EDGE('',*,*,#109,.T.);
#86=ORIENTED_EDGE('',*,*,#110,.T.);
#87=ORIENTED_EDGE('',*,*,#111,.T.);
#88=ORIENTED_EDGE('',*,*,#112,.T.);
#89=ORIENTED_EDGE('',*,*,#113,.T.);
#90=ORIENTED_EDGE('',*,*,#112,.F.);
#91=ORIENTED_EDGE('',*,*,#114,.T.);
#92=ORIENTED_EDGE('',*,*,#115,.F.);
#93=ORIENTED_EDGE('',*,*,#116,.T.);
#94=ORIENTED_EDGE('',*,*,#114,.F.);
#95=ORIENTED_EDGE('',*,*,#115,.T.);
#96=ORIENTED_EDGE('',*,*,#111,.F.);
#97=ORIENTED_EDGE('',*,*,#110,.F.);
#98=ORIENTED_EDGE('',*,*,#113,.F.);
#99=ORIENTED_EDGE('',*,*,#109,.F.);
#100=ORIENTED_EDGE('',*,*,#116,.F.);
#101=VERTEX_POINT('',#225);
#102=VERTEX_POINT('',#228);
#103=VERTEX_POINT('',#230);
#104=VERTEX_POINT('',#233);
#105=VERTEX_POINT('',#235);
#106=VERTEX_POINT('',#238);
#107=VERTEX_POINT('',#241);
#108=VERTEX_POINT('',#243);
#109=EDGE_CURVE('',#101,#101,#117,.T.);
#110=EDGE_CURVE('',#102,#102,#118,.T.);
#111=EDGE_CURVE('',#103,#103,#119,.T.);
#112=EDGE_CURVE('',#104,#104,#120,.T.);
#113=EDGE_CURVE('',#105,#105,#121,.T.);
#114=EDGE_CURVE('',#106,#106,#122,.T.);
#115=EDGE_CURVE('',#107,#107,#123,.T.);
#116=EDGE_CURVE('',#108,#108,#124,.T.);
#117=CIRCLE('',#158,8.);
#118=CIRCLE('',#160,10.);
#119=CIRCLE('',#161,10.);
#120=CIRCLE('',#163,13.);
#121=CIRCLE('',#164,13.);
#122=CIRCLE('',#166,11.0933026314612);
#123=CIRCLE('',#168,9.);
#124=CIRCLE('',#169,8.);
#125=CURVE_STYLE('',#128,POSITIVE_LENGTH_MEASURE(0.18),#152);
#126=CURVE_STYLE('',#129,POSITIVE_LENGTH_MEASURE(0.18),#152);
#127=CURVE_STYLE('',#130,POSITIVE_LENGTH_MEASURE(0.18),#152);
#128=DRAUGHTING_PRE_DEFINED_CURVE_FONT('continuous');
#129=DRAUGHTING_PRE_DEFINED_CURVE_FONT('continuous');
#130=DRAUGHTING_PRE_DEFINED_CURVE_FONT('continuous');
#131=PRESENTATION_LAYER_ASSIGNMENT('1','Layer 1',(#218,#219,#220,#155,#156,
#157,#33));
#132=STYLED_ITEM('',(#139),#218);
#133=STYLED_ITEM('',(#140),#219);
#134=STYLED_ITEM('',(#141),#220);
#135=STYLED_ITEM('',(#142),#155);
#136=STYLED_ITEM('',(#143),#156);
#137=STYLED_ITEM('',(#144),#157);
#138=STYLED_ITEM('',(#145),#33);
#139=PRESENTATION_STYLE_ASSIGNMENT((#146));
#140=PRESENTATION_STYLE_ASSIGNMENT((#147));
#141=PRESENTATION_STYLE_ASSIGNMENT((#148));
#142=PRESENTATION_STYLE_ASSIGNMENT((#125));
#143=PRESENTATION_STYLE_ASSIGNMENT((#126));
#144=PRESENTATION_STYLE_ASSIGNMENT((#127));
#145=PRESENTATION_STYLE_ASSIGNMENT((#28));
#146=POINT_STYLE('',#149,POSITIVE_LENGTH_MEASURE(3.),#152);
#147=POINT_STYLE('',#150,POSITIVE_LENGTH_MEASURE(3.),#152);
#148=POINT_STYLE('',#151,POSITIVE_LENGTH_MEASURE(3.),#152);
#149=PRE_DEFINED_POINT_MARKER_SYMBOL('plus');
#150=PRE_DEFINED_POINT_MARKER_SYMBOL('plus');
#151=PRE_DEFINED_POINT_MARKER_SYMBOL('plus');
#152=COLOUR_RGB('Medium Maroon',0.6,0.4,0.4);
#153=COLOUR_RGB('TLS_NOCUT',0.501960784313725,0.501960784313725,0.501960784313725);
#154=AXIS2_PLACEMENT_3D('',#217,#175,#176);
#155=AXIS2_PLACEMENT_3D('PCS',#221,#177,#178);
#156=AXIS2_PLACEMENT_3D('CSW',#222,#179,#180);
#157=AXIS2_PLACEMENT_3D('MCS',#223,#181,#182);
#158=AXIS2_PLACEMENT_3D('',#224,#183,#184);
#159=AXIS2_PLACEMENT_3D('',#226,#185,#186);
#160=AXIS2_PLACEMENT_3D('',#227,#187,#188);
#161=AXIS2_PLACEMENT_3D('',#229,#189,#190);
#162=AXIS2_PLACEMENT_3D('',#231,#191,#192);
#163=AXIS2_PLACEMENT_3D('',#232,#193,#194);
#164=AXIS2_PLACEMENT_3D('',#234,#195,#196);
#165=AXIS2_PLACEMENT_3D('',#236,#197,#198);
#166=AXIS2_PLACEMENT_3D('',#237,#199,#200);
#167=AXIS2_PLACEMENT_3D('',#239,#201,#202);
#168=AXIS2_PLACEMENT_3D('',#240,#203,#204);
#169=AXIS2_PLACEMENT_3D('',#242,#205,#206);
#170=AXIS2_PLACEMENT_3D('',#244,#207,#208);
#171=AXIS2_PLACEMENT_3D('',#245,#209,#210);
#172=AXIS2_PLACEMENT_3D('',#246,#211,#212);
#173=AXIS2_PLACEMENT_3D('',#247,#213,#214);
#174=AXIS2_PLACEMENT_3D('',#248,#215,#216);
#175=DIRECTION('',(0.,0.,1.));
#176=DIRECTION('',(1.,0.,0.));
#177=DIRECTION('',(0.,0.,1.));
#178=DIRECTION('',(1.,0.,0.));
#179=DIRECTION('',(0.,0.,1.));
#180=DIRECTION('',(1.,0.,0.));
#181=DIRECTION('',(0.,0.,1.));
#182=DIRECTION('',(1.,0.,0.));
#183=DIRECTION('',(0.,0.,-1.));
#184=DIRECTION('',(-1.,0.,0.));
#185=DIRECTION('',(0.,0.,-1.));
#186=DIRECTION('',(-1.,0.,0.));
#187=DIRECTION('',(0.,0.,1.));
#188=DIRECTION('',(-1.,0.,0.));
#189=DIRECTION('',(0.,0.,-1.));
#190=DIRECTION('',(1.,0.,0.));
#191=DIRECTION('',(0.,0.,1.));
#192=DIRECTION('',(1.,0.,0.));
#193=DIRECTION('',(5.69345140833414E-017,0.,1.));
#194=DIRECTION('',(1.,0.,0.));
#195=DIRECTION('',(0.,0.,-1.));
#196=DIRECTION('',(-1.,0.,0.));
#197=DIRECTION('',(5.69345140833414E-017,0.,1.));
#198=DIRECTION('',(1.,0.,0.));
#199=DIRECTION('',(5.69345140833414E-017,0.,1.));
#200=DIRECTION('',(1.,0.,0.));
#201=DIRECTION('',(5.69345140833414E-017,0.,1.));
#202=DIRECTION('',(1.,0.,-4.44902597364489E-017));
#203=DIRECTION('',(5.69345140833414E-017,0.,1.));
#204=DIRECTION('',(1.,0.,0.));
#205=DIRECTION('',(5.69345140833414E-017,0.,1.));
#206=DIRECTION('',(-1.,0.,0.));
#207=DIRECTION('',(-5.69345140833414E-017,0.,-1.));
#208=DIRECTION('',(-1.,0.,5.55111512312578E-017));
#209=DIRECTION('',(5.69345140833414E-017,0.,1.));
#210=DIRECTION('',(1.,0.,-5.82540235014956E-017));
#211=DIRECTION('',(0.,0.,1.));
#212=DIRECTION('',(1.,0.,0.));
#213=DIRECTION('',(0.,0.,-1.));
#214=DIRECTION('',(-1.,0.,0.));
#215=DIRECTION('',(5.69345140833414E-017,0.,1.));
#216=DIRECTION('',(1.,0.,0.));
#217=CARTESIAN_POINT('',(0.,0.,0.));
#218=CARTESIAN_POINT('',(0.,0.,0.));
#219=CARTESIAN_POINT('',(2.87894708073111E-014,-8.67361737988404E-016,-77.));
#220=CARTESIAN_POINT('',(7.105427357601E-015,0.,-72.));
#221=CARTESIAN_POINT('',(0.,0.,0.));
#222=CARTESIAN_POINT('',(2.87894708073111E-014,-8.67361737988404E-016,-77.));
#223=CARTESIAN_POINT('',(7.105427357601E-015,0.,-72.));
#224=CARTESIAN_POINT('',(3.22055416523116E-014,-8.67361737988404E-016,-18.));
#225=CARTESIAN_POINT('',(-7.99999999999997,-8.67361737988404E-016,-18.));
#226=CARTESIAN_POINT('',(2.18053330798996E-014,-2.71050543121376E-017,-18.));
#227=CARTESIAN_POINT('',(7.105427357601E-015,0.,-72.));
#228=CARTESIAN_POINT('',(-9.99999999999999,0.,-72.));
#229=CARTESIAN_POINT('',(7.105427357601E-015,0.,-0.300000000000009));
#230=CARTESIAN_POINT('',(10.,0.,-0.300000000000009));
#231=CARTESIAN_POINT('',(7.105427357601E-015,0.,-72.));
#232=CARTESIAN_POINT('',(2.94920782951708E-015,0.,-73.));
#233=CARTESIAN_POINT('',(13.,0.,-73.));
#234=CARTESIAN_POINT('',(7.105427357601E-015,0.,-72.));
#235=CARTESIAN_POINT('',(-13.,0.,-72.));
#236=CARTESIAN_POINT('',(2.66453525910038E-015,0.,-78.));
#237=CARTESIAN_POINT('',(2.92012009899595E-015,0.,-73.5108980201105));
#238=CARTESIAN_POINT('',(11.0933026314612,0.,-73.5108980201105));
#239=CARTESIAN_POINT('',(2.92012009899595E-015,0.,-73.5108980201105));
#240=CARTESIAN_POINT('',(2.66453525910038E-015,0.,-78.));
#241=CARTESIAN_POINT('',(9.,0.,-78.));
#242=CARTESIAN_POINT('',(2.87894708073111E-014,-8.67361737988404E-016,-78.));
#243=CARTESIAN_POINT('',(-7.99999999999997,-8.67361737988404E-016,-78.));
#244=CARTESIAN_POINT('',(9.,0.,-78.));
#245=CARTESIAN_POINT('',(2.80494618748809E-015,0.,-75.533817041414));
#246=CARTESIAN_POINT('',(7.088347003376E-015,0.,-0.300000000000009));
#247=CARTESIAN_POINT('',(7.105427357601E-015,0.,-72.));
#248=CARTESIAN_POINT('',(2.87894708073111E-014,-8.67361737988404E-016,-78.));
#249=MECHANICAL_DESIGN_GEOMETRIC_PRESENTATION_REPRESENTATION('',(#132,#133,
#134,#135,#136,#137,#138),#250);
#250=(
GEOMETRIC_REPRESENTATION_CONTEXT(3)
GLOBAL_UNCERTAINTY_ASSIGNED_CONTEXT((#251))
GLOBAL_UNIT_ASSIGNED_CONTEXT((#257,#253,#252))
REPRESENTATION_CONTEXT('1553853977562','TOP_LEVEL_ASSEMBLY_PART')
);
#251=UNCERTAINTY_MEASURE_WITH_UNIT(LENGTH_MEASURE(2.E-005),#257,
'DISTANCE_ACCURACY_VALUE','Maximum Tolerance applied to model');
#252=(
NAMED_UNIT(*)
SI_UNIT($,.STERADIAN.)
SOLID_ANGLE_UNIT()
);
#253=(
CONVERSION_BASED_UNIT('DEGREE',#255)
NAMED_UNIT(#254)
PLANE_ANGLE_UNIT()
);
#254=DIMENSIONAL_EXPONENTS(0.,0.,0.,0.,0.,0.,0.);
#255=PLANE_ANGLE_MEASURE_WITH_UNIT(PLANE_ANGLE_MEASURE(0.0174532925),#256);
#256=(
NAMED_UNIT(*)
PLANE_ANGLE_UNIT()
SI_UNIT($,.RADIAN.)
);
#257=(
LENGTH_UNIT()
NAMED_UNIT(*)
SI_UNIT(.MILLI.,.METRE.)
);
ENDSEC;
END-ISO-10303-21;
